  0
SECTION
  2
HEADER
  9
$ACADVER
  1
AC1021
  9
$ACADMAINTVER
 70
     3
  9
$DWGCODEPAGE
  3
ANSI_1252
  9
$LASTSAVEDBY
  1
stefan.bieli
  9
$CUSTOMPROPERTYTAG
  1
AmdtFileType
  9
$CUSTOMPROPERTY
  1
84
  9
$INSBASE
 10
0.0
 20
0.0
 30
0.0
  9
$EXTMIN
 10
-221.5628026082009
 20
-113.0766734919157
 30
-0.0015258207003583
  9
$EXTMAX
 10
221.5947953206587
 20
1488.074946594628
 30
0.0000000349246037
  9
$LIMMIN
 10
0.0
 20
0.0
  9
$LIMMAX
 10
1189.0
 20
841.0
  9
$ORTHOMODE
 70
     1
  9
$REGENMODE
 70
     1
  9
$FILLMODE
 70
     1
  9
$QTEXTMODE
 70
     0
  9
$MIRRTEXT
 70
     1
  9
$LTSCALE
 40
1.0
  9
$ATTMODE
 70
     1
  9
$TEXTSIZE
 40
2.5
  9
$TRACEWID
 40
1.0
  9
$TEXTSTYLE
  7
ACDINTS
  9
$CLAYER
  8
0
  9
$CELTYPE
  6
ByLayer
  9
$CECOLOR
 62
   256
  9
$CELTSCALE
 40
1.0
  9
$DISPSILH
 70
     0
  9
$DIMSCALE
 40
1.0
  9
$DIMASZ
 40
2.5
  9
$DIMEXO
 40
1.0
  9
$DIMDLI
 40
10.0
  9
$DIMRND
 40
0.0
  9
$DIMDLE
 40
0.0
  9
$DIMEXE
 40
1.0
  9
$DIMTP
 40
0.1
  9
$DIMTM
 40
0.1
  9
$DIMTXT
 40
2.5
  9
$DIMCEN
 40
0.0
  9
$DIMTSZ
 40
0.0
  9
$DIMTOL
 70
     0
  9
$DIMLIM
 70
     0
  9
$DIMTIH
 70
     0
  9
$DIMTOH
 70
     0
  9
$DIMSE1
 70
     0
  9
$DIMSE2
 70
     0
  9
$DIMTAD
 70
     1
  9
$DIMZIN
 70
     8
  9
$DIMBLK
  1

  9
$DIMASO
 70
     1
  9
$DIMSHO
 70
     1
  9
$DIMPOST
  1

  9
$DIMAPOST
  1
"
  9
$DIMALT
 70
     0
  9
$DIMALTD
 70
     2
  9
$DIMALTF
 40
0.0393701
  9
$DIMLFAC
 40
1.0
  9
$DIMTOFL
 70
     1
  9
$DIMTVP
 40
0.0
  9
$DIMTIX
 70
     0
  9
$DIMSOXD
 70
     0
  9
$DIMSAH
 70
     0
  9
$DIMBLK1
  1

  9
$DIMBLK2
  1

  9
$DIMSTYLE
  2
AM_DIN
  9
$DIMCLRD
 70
   256
  9
$DIMCLRE
 70
   256
  9
$DIMCLRT
 70
     2
  9
$DIMTFAC
 40
0.71
  9
$DIMGAP
 40
1.5
  9
$DIMJUST
 70
     0
  9
$DIMSD1
 70
     0
  9
$DIMSD2
 70
     0
  9
$DIMTOLJ
 70
     0
  9
$DIMTZIN
 70
     8
  9
$DIMALTZ
 70
     0
  9
$DIMALTTZ
 70
     0
  9
$DIMUPT
 70
     0
  9
$DIMDEC
 70
     2
  9
$DIMTDEC
 70
     2
  9
$DIMALTU
 70
     2
  9
$DIMALTTD
 70
     2
  9
$DIMTXSTY
  7
STANDARD
  9
$DIMAUNIT
 70
     0
  9
$DIMADEC
 70
     0
  9
$DIMALTRND
 40
0.0
  9
$DIMAZIN
 70
     2
  9
$DIMDSEP
 70
    46
  9
$DIMATFIT
 70
     3
  9
$DIMFRAC
 70
     0
  9
$DIMLDRBLK
  1

  9
$DIMLUNIT
 70
     2
  9
$DIMLWD
 70
    -1
  9
$DIMLWE
 70
    -1
  9
$DIMTMOVE
 70
     0
  9
$DIMFXL
 40
1.0
  9
$DIMFXLON
 70
     0
  9
$DIMJOGANG
 40
0.7853981633974483
  9
$DIMTFILL
 70
     0
  9
$DIMTFILLCLR
 70
     0
  9
$DIMARCSYM
 70
     0
  9
$DIMLTYPE
  6

  9
$DIMLTEX1
  6

  9
$DIMLTEX2
  6

  9
$LUNITS
 70
     2
  9
$LUPREC
 70
     2
  9
$SKETCHINC
 40
1.0
  9
$FILLETRAD
 40
2.5
  9
$AUNITS
 70
     0
  9
$AUPREC
 70
     0
  9
$MENU
  1
.
  9
$ELEVATION
 40
0.0
  9
$PELEVATION
 40
0.0
  9
$THICKNESS
 40
0.0
  9
$LIMCHECK
 70
     0
  9
$CHAMFERA
 40
2.5
  9
$CHAMFERB
 40
2.5
  9
$CHAMFERC
 40
20.0
  9
$CHAMFERD
 40
0.0
  9
$SKPOLY
 70
     0
  9
$TDCREATE
 40
2456475.533055949
  9
$TDUCREATE
 40
2456475.491389283
  9
$TDUPDATE
 40
2456639.737638507
  9
$TDUUPDATE
 40
2456639.695971840
  9
$TDINDWG
 40
0.2289454167
  9
$TDUSRTIMER
 40
0.2289454167
  9
$USRTIMER
 70
     1
  9
$ANGBASE
 50
0.0
  9
$ANGDIR
 70
     0
  9
$PDMODE
 70
     0
  9
$PDSIZE
 40
0.0
  9
$PLINEWID
 40
0.0
  9
$SPLFRAME
 70
     0
  9
$SPLINETYPE
 70
     6
  9
$SPLINESEGS
 70
   160
  9
$HANDSEED
  5
81CE
  9
$SURFTAB1
 70
     6
  9
$SURFTAB2
 70
     6
  9
$SURFTYPE
 70
     6
  9
$SURFU
 70
     6
  9
$SURFV
 70
     6
  9
$UCSBASE
  2

  9
$UCSNAME
  2

  9
$UCSORG
 10
0.0
 20
0.0
 30
0.0
  9
$UCSXDIR
 10
1.0
 20
0.0
 30
0.0
  9
$UCSYDIR
 10
0.0
 20
1.0
 30
0.0
  9
$UCSORTHOREF
  2

  9
$UCSORTHOVIEW
 70
     0
  9
$UCSORGTOP
 10
0.0
 20
0.0
 30
0.0
  9
$UCSORGBOTTOM
 10
0.0
 20
0.0
 30
0.0
  9
$UCSORGLEFT
 10
0.0
 20
0.0
 30
0.0
  9
$UCSORGRIGHT
 10
0.0
 20
0.0
 30
0.0
  9
$UCSORGFRONT
 10
0.0
 20
0.0
 30
0.0
  9
$UCSORGBACK
 10
0.0
 20
0.0
 30
0.0
  9
$PUCSBASE
  2

  9
$PUCSNAME
  2

  9
$PUCSORG
 10
0.0
 20
0.0
 30
0.0
  9
$PUCSXDIR
 10
1.0
 20
0.0
 30
0.0
  9
$PUCSYDIR
 10
0.0
 20
1.0
 30
0.0
  9
$PUCSORTHOREF
  2

  9
$PUCSORTHOVIEW
 70
     0
  9
$PUCSORGTOP
 10
0.0
 20
0.0
 30
0.0
  9
$PUCSORGBOTTOM
 10
0.0
 20
0.0
 30
0.0
  9
$PUCSORGLEFT
 10
0.0
 20
0.0
 30
0.0
  9
$PUCSORGRIGHT
 10
0.0
 20
0.0
 30
0.0
  9
$PUCSORGFRONT
 10
0.0
 20
0.0
 30
0.0
  9
$PUCSORGBACK
 10
0.0
 20
0.0
 30
0.0
  9
$USERI1
 70
     0
  9
$USERI2
 70
     0
  9
$USERI3
 70
     0
  9
$USERI4
 70
     0
  9
$USERI5
 70
     0
  9
$USERR1
 40
0.0
  9
$USERR2
 40
0.0
  9
$USERR3
 40
0.0
  9
$USERR4
 40
0.0
  9
$USERR5
 40
0.0
  9
$WORLDVIEW
 70
     1
  9
$SHADEDGE
 70
     3
  9
$SHADEDIF
 70
    70
  9
$TILEMODE
 70
     1
  9
$MAXACTVP
 70
    64
  9
$PINSBASE
 10
0.0
 20
0.0
 30
0.0
  9
$PLIMCHECK
 70
     0
  9
$PEXTMIN
 10
1.000000000000000E+20
 20
1.000000000000000E+20
 30
1.000000000000000E+20
  9
$PEXTMAX
 10
-1.000000000000000E+20
 20
-1.000000000000000E+20
 30
-1.000000000000000E+20
  9
$PLIMMIN
 10
81.34683633122358
 20
0.0
  9
$PLIMMAX
 10
286.3468363312236
 20
292.0
  9
$UNITMODE
 70
     0
  9
$VISRETAIN
 70
     1
  9
$PLINEGEN
 70
     0
  9
$PSLTSCALE
 70
     1
  9
$TREEDEPTH
 70
  3020
  9
$CMLSTYLE
  2
Standard
  9
$CMLJUST
 70
     0
  9
$CMLSCALE
 40
20.0
  9
$PROXYGRAPHICS
 70
     1
  9
$MEASUREMENT
 70
     1
  9
$CELWEIGHT
370
    -1
  9
$ENDCAPS
280
     0
  9
$JOINSTYLE
280
     0
  9
$LWDISPLAY
290
     0
  9
$INSUNITS
 70
     4
  9
$HYPERLINKBASE
  1

  9
$STYLESHEET
  1
monochrome.ctb
  9
$XEDIT
290
     1
  9
$CEPSNTYPE
380
     0
  9
$PSTYLEMODE
290
     1
  9
$FINGERPRINTGUID
  2
{BD003F14-0D34-415E-B2B3-85D60F6E61E4}
  9
$VERSIONGUID
  2
{63E29864-29B4-4FDE-A185-0EA8A8F040A8}
  9
$EXTNAMES
290
     1
  9
$PSVPSCALE
 40
0.0
  9
$OLESTARTUP
290
     0
  9
$SORTENTS
280
   127
  9
$INDEXCTL
280
     0
  9
$HIDETEXT
280
     1
  9
$XCLIPFRAME
290
     0
  9
$HALOGAP
280
     0
  9
$OBSCOLOR
 70
   257
  9
$OBSLTYPE
280
     0
  9
$INTERSECTIONDISPLAY
280
     0
  9
$INTERSECTIONCOLOR
 70
   257
  9
$DIMASSOC
280
     2
  9
$PROJECTNAME
  1

  9
$CAMERADISPLAY
290
     0
  9
$LENSLENGTH
 40
50.0
  9
$CAMERAHEIGHT
 40
0.0
  9
$STEPSPERSEC
 40
2.0
  9
$STEPSIZE
 40
6.0
  9
$3DDWFPREC
 40
2.0
  9
$PSOLWIDTH
 40
0.25
  9
$PSOLHEIGHT
 40
4.0
  9
$LOFTANG1
 40
1.570796326794896
  9
$LOFTANG2
 40
1.570796326794896
  9
$LOFTMAG1
 40
0.0
  9
$LOFTMAG2
 40
0.0
  9
$LOFTPARAM
 70
     7
  9
$LOFTNORMALS
280
     1
  9
$LATITUDE
 40
37.795
  9
$LONGITUDE
 40
-122.394
  9
$NORTHDIRECTION
 40
0.0
  9
$TIMEZONE
 70
 -8000
  9
$LIGHTGLYPHDISPLAY
280
     1
  9
$TILEMODELIGHTSYNCH
280
     1
  9
$CMATERIAL
347
42CC
  9
$SOLIDHIST
280
     1
  9
$SHOWHIST
280
     1
  9
$DWFFRAME
280
     2
  9
$DGNFRAME
280
     0
  9
$REALWORLDSCALE
290
     1
  9
$INTERFERECOLOR
 62
     1
  9
$INTERFEREOBJVS
345
42D9
  9
$INTERFEREVPVS
346
42D6
  9
$CSHADOW
280
     0
  9
$SHADOWPLANELOCATION
 40
0.0
  0
ENDSEC
  0
SECTION
  2
CLASSES
  0
CLASS
  1
ACDBDICTIONARYWDFLT
  2
AcDbDictionaryWithDefault
  3
ObjectDBX Classes
 90
        0
 91
        1
280
     0
281
     0
  0
CLASS
  1
AMGSETTINGSOBJ
  2
AmgSettingsObj
  3
"AcadM|Product Description: AutoCAD Mechanical|Company: Autodesk"
 90
        0
 91
        4
280
     0
281
     0
  0
CLASS
  1
ACME_DOCUMENT
  2
AcMeDbDoc
  3
AcMeServices
 90
        0
 91
        2
280
     0
281
     0
  0
CLASS
  1
ACMESCOPE
  2
AcMeScope
  3
AcMeServices
 90
        0
 91
        1
280
     0
281
     0
  0
CLASS
  1
ACMECOMMANDHISTORY
  2
AcMeCommandHistory
  3
AcMeServices
 90
        0
 91
        1
280
     0
281
     0
  0
CLASS
  1
ACIMSYSVARMAN
  2
AcImSysVarManager
  3
AcMeServices
 90
        0
 91
        5
280
     0
281
     0
  0
CLASS
  1
ACIMREALSYSVAR
  2
AcImRealSysVar
  3
AcMeServices
 90
        0
 91
        3
280
     0
281
     0
  0
CLASS
  1
ACIMINTSYSVAR
  2
AcImIntSysVar
  3
AcMeServices
 90
        0
 91
       28
280
     0
281
     0
  0
CLASS
  1
ACMEDRAWINGMAN
  2
AcMeDrawingMan
  3
AcMeServices
 90
        0
 91
        1
280
     0
281
     0
  0
CLASS
  1
ACMEVIEW
  2
AcMeView
  3
AcMeServices
 90
        0
 91
        1
280
     0
281
     0
  0
CLASS
  1
ACDBENTITYCACHE
  2
AcMeEntityCache
  3
AcMeServices
 90
        0
 91
        1
280
     0
281
     0
  0
CLASS
  1
GSMANAGER
  2
AcMeGSManager
  3
AcMeServices
 90
        0
 91
        1
280
     0
281
     0
  0
CLASS
  1
AMDTINTERNALREACTOR
  2
AmdtInternalReactor
  3
AcMeServices
 90
        0
 91
        2
280
     0
281
     0
  0
CLASS
  1
ACMESTATEMGR
  2
AcMeStateMgr
  3
AcMeServices
 90
        0
 91
        1
280
     0
281
     0
  0
CLASS
  1
ACGREFMASTER
  2
AcGrefMaster
  3
AcAttribServices
 90
        0
 91
        1
280
     0
281
     0
  0
CLASS
  1
ACME_DATABASE
  2
AcMeDbDatabase
  3
AcMeServices
 90
        0
 91
        1
280
     0
281
     0
  0
CLASS
  1
ACRFINSADJUSTERMGR
  2
AcRfInsAdjusterMgr
  3
AcMeServices
 90
        0
 91
        1
280
     0
281
     0
  0
CLASS
  1
ACGREFACADMASTER
  2
AcGrefacadMaster
  3
AcGrefServices
 90
        0
 91
        1
280
     0
281
     0
  0
CLASS
  1
AMIMASTER
  2
AmiMaster
  3
AmiServices
 90
        0
 91
        1
280
     0
281
     0
  0
CLASS
  1
ACMDATADICTIONARY
  2
AcmDataDictionary
  3
"AcmSymBB|Product Description: AutoCAD Mechanical|Company: Autodesk"
 90
        0
 91
        1
280
     0
281
     0
  0
CLASS
  1
ACMDATAENTRYBLOCK
  2
AcmDataEntryBlock
  3
"AcmSymBB|Product Description: AutoCAD Mechanical|Company: Autodesk"
 90
        0
 91
        4
280
     0
281
     0
  0
CLASS
  1
ACIMSTRSYSVAR
  2
AcImStrSysVar
  3
AcMeServices
 90
        0
 91
        5
280
     0
281
     0
  0
CLASS
  1
ACMSTANDARDDIN
  2
AcmStandardDIN
  3
"Amdt_StdImp|Product Description: AutoCAD Mechanical|Company: Autodesk"
 90
        0
 91
        1
280
     0
281
     0
  0
CLASS
  1
AMGOBJPROPCFG
  2
AmgObjPropCfg
  3
"AmgLay|Product Description: AutoCAD Mechanical|Company: Autodesk"
 90
        1
 91
        1
280
     0
281
     0
  0
CLASS
  1
AMDTEDGESTANDARDDIN
  2
AmdtEdgeStdDIN
  3
"Amdt_StdImp|Product Description: AutoCAD Mechanical|Company: Autodesk"
 90
        0
 91
        1
280
     0
281
     0
  0
CLASS
  1
ACMSURFSTANDARDDIN
  2
AcmSurfTextStdDIN
  3
"Amdt_StdImp|Product Description: AutoCAD Mechanical|Company: Autodesk"
 90
        0
 91
        1
280
     0
281
     0
  0
CLASS
  1
ACMFCFSTANDARDDIN
  2
AcmFCFStdDIN
  3
"Amdt_StdImp|Product Description: AutoCAD Mechanical|Company: Autodesk"
 90
        0
 91
        1
280
     0
281
     0
  0
CLASS
  1
ACMWELDSTANDARDDIN
  2
AcmWeldingStdDIN
  3
"Amdt_StdImp|Product Description: AutoCAD Mechanical|Company: Autodesk"
 90
        0
 91
        1
280
     0
281
     0
  0
CLASS
  1
ACMIDSTANDARDDIN
  2
AcmIdStdDIN
  3
"Amdt_StdImp|Product Description: AutoCAD Mechanical|Company: Autodesk"
 90
        0
 91
        1
280
     0
281
     0
  0
CLASS
  1
ACMDATUMSTANDARDDIN
  2
AcmDatumStdDIN
  3
"Amdt_StdImp|Product Description: AutoCAD Mechanical|Company: Autodesk"
 90
        0
 91
        1
280
     0
281
     0
  0
CLASS
  1
ACMBOMSTANDARDDIN
  2
AcmBOMStdDIN
  3
"Amdt_StdImp|Product Description: AutoCAD Mechanical|Company: Autodesk"
 90
        0
 91
        1
280
     0
281
     0
  0
CLASS
  1
ACMDETAILSTANDARDDIN
  2
AmdtDetailSymStdDIN
  3
"Amdt_StdImp|Product Description: AutoCAD Mechanical|Company: Autodesk"
 90
        0
 91
        1
280
     0
281
     0
  0
CLASS
  1
ACMSECTIONSTANDARDDIN
  2
AmdtSectionSymStdDIN
  3
"Amdt_StdImp|Product Description: AutoCAD Mechanical|Company: Autodesk"
 90
        0
 91
        1
280
     0
281
     0
  0
CLASS
  1
ACMCENTERLINESTANDARDDIN
  2
AmdtCenterLineStdDIN
  3
"Amdt_StdImp|Product Description: AutoCAD Mechanical|Company: Autodesk"
 90
        0
 91
        1
280
     0
281
     0
  0
CLASS
  1
ACAMGLAYSTD
  2
AcAmgLayStd
  3
"AmgLay|Product Description: AutoCAD Mechanical|Company: Autodesk"
 90
        0
 91
        1
280
     0
281
     0
  0
CLASS
  1
ACAMGDIMSTD
  2
AcAmgDimStd
  3
"AmgDim|Product Description: AutoCAD Mechanical|Company: Autodesk"
 90
        0
 91
        1
280
     0
281
     0
  0
CLASS
  1
ACAMGTITLESTD
  2
AcAmgTitleStd
  3
"AmgTitle|Product Description: AutoCAD Mechanical|Company: Autodesk"
 90
        0
 91
        1
280
     0
281
     0
  0
CLASS
  1
ACAMGFILTERDAT
  2
AcAmgFilterDat
  3
"AcadM|Product Description: AutoCAD Mechanical|Company: Autodesk"
 90
        0
 91
        2
280
     0
281
     0
  0
CLASS
  1
AMDTFORMULAUPDATEDISPATCHER
  2
AmdtFormulaUpdateDispatcher
  3
AcMeServices
 90
        0
 91
        1
280
     0
281
     0
  0
CLASS
  1
LAYER_INDEX
  2
AcDbLayerIndex
  3
ObjectDBX Classes
 90
        0
 91
        0
280
     0
281
     0
  0
CLASS
  1
IDBUFFER
  2
AcDbIdBuffer
  3
ObjectDBX Classes
 90
        0
 91
        0
280
     0
281
     0
  0
CLASS
  1
DICTIONARYVAR
  2
AcDbDictionaryVar
  3
ObjectDBX Classes
 90
        0
 91
        4
280
     0
281
     0
  0
CLASS
  1
IMAGE
  2
AcDbRasterImage
  3
ISM
 90
     2175
 91
        0
280
     0
281
     1
  0
CLASS
  1
IMAGEDEF_REACTOR
  2
AcDbRasterImageDefReactor
  3
ISM
 90
        1
 91
        0
280
     0
281
     0
  0
CLASS
  1
IMAGEDEF
  2
AcDbRasterImageDef
  3
ISM
 90
        0
 91
        1
280
     0
281
     0
  0
CLASS
  1
RASTERVARIABLES
  2
AcDbRasterVariables
  3
ISM
 90
        0
 91
        1
280
     0
281
     0
  0
CLASS
  1
PLOTSETTINGS
  2
AcDbPlotSettings
  3
ObjectDBX Classes
 90
        0
 91
        0
280
     0
281
     0
  0
CLASS
  1
ACMDATAENTRYPART
  2
AcmDataEntryPart
  3
"AcmSymBB|Product Description: AutoCAD Mechanical|Company: Autodesk"
 90
        0
 91
        0
280
     0
281
     0
  0
CLASS
  1
ACMPARTREF
  2
AcmPartRef
  3
"AcmSymBB|Product Description: AutoCAD Mechanical|Company: Autodesk"
 90
     3071
 91
        0
280
     0
281
     1
  0
CLASS
  1
ACMBOM
  2
AcmBom
  3
"AcmSymBB|Product Description: AutoCAD Mechanical|Company: Autodesk"
 90
        0
 91
        1
280
     0
281
     0
  0
CLASS
  1
ACMBOMROW
  2
AcmBomRow
  3
"AcmSymBB|Product Description: AutoCAD Mechanical|Company: Autodesk"
 90
        0
 91
        0
280
     0
281
     0
  0
CLASS
  1
ACMPARTLIST
  2
AcmPartList
  3
"AcmSymBB|Product Description: AutoCAD Mechanical|Company: Autodesk"
 90
     3071
 91
        0
280
     0
281
     1
  0
CLASS
  1
ACDBLINERES
  2
AcDbLineRes
  3
AcGrefServices
 90
        0
 91
        0
280
     0
281
     0
  0
CLASS
  1
ACRFINSADJ
  2
AcRfInsAdjuster
  3
AcMeServices
 90
        0
 91
        0
280
     0
281
     0
  0
CLASS
  1
ACMNOTESTANDARDDIN
  2
AmdtNoteStdDIN
  3
"Amdt_StdImp|Product Description: AutoCAD Mechanical|Company: Autodesk"
 90
        0
 91
        1
280
     0
281
     0
  0
CLASS
  1
ACAMGHOLECHARTSTDDIN
  2
AcAmgHoleChartStdDIN
  3
ACMSYMBB_MODULE_NAME
 90
        0
 91
        1
280
     0
281
     0
  0
CLASS
  1
AM_DRAWING_MGR
  2
AcDmDwgMgr
  3
AcMechDwgViewMgmt
 90
        0
 91
        1
280
     0
281
     0
  0
CLASS
  1
AM_DWG_DOCUMENT
  2
AcDmDwgDocument
  3
AcMechDwgViewMgmt
 90
        0
 91
        1
280
     0
281
     0
  0
CLASS
  1
AM_DWG_SHEET
  2
AcDmSheet
  3
AcMechDwgViewMgmt
 90
        0
 91
        1
280
     0
281
     0
  0
CLASS
  1
AM_VIEWDIMPARMAP
  2
AcDmViewDimParMap
  3
AcMechDwgViewMgmt
 90
        0
 91
        1
280
     0
281
     0
  0
CLASS
  1
AM_DWGMGR_NAME
  2
AcDmDwgMgrName
  3
AcMechDwgViewMgmt
 90
        0
 91
        1
280
     0
281
     0
  0
CLASS
  1
AMDTMENUSTATEMGR
  2
AmdtMenuStateMgr
  3
McadcomServices
 90
        0
 91
        1
280
     0
281
     0
  0
CLASS
  1
AMDTMCOMMENUSTATE
  2
AmdtMcomMenuState
  3
McadcomServices
 90
        0
 91
        1
280
     0
281
     0
  0
CLASS
  1
MAPIAMMOUDLE
  2
MApiAmModule
  3
MApiAmServices
 90
        0
 91
        1
280
     0
281
     0
  0
CLASS
  1
AMDTADMENUSTATE
  2
AmdtAdMenuState
  3
DesignerServices
 90
        0
 91
        1
280
     0
281
     0
  0
CLASS
  1
ADAPPL
  2
AcAdAppl
  3
DesignerServices
 90
        0
 91
        1
280
     0
281
     0
  0
CLASS
  1
DEPMGR
  2
AcAdDepMgr
  3
DesignerServices
 90
        0
 91
        1
280
     0
281
     0
  0
CLASS
  1
PARAMMGR
  2
AcAdParamMgr
  3
DesignerServices
 90
        0
 91
        1
280
     0
281
     0
  0
CLASS
  1
PARAMSCOPE
  2
AcAdParamScope
  3
DesignerServices
 90
        0
 91
        1
280
     0
281
     0
  0
CLASS
  1
NAMEDAPPL
  2
AcAdNamedAppl
  3
DesignerServices
 90
        0
 91
        1
280
     0
281
     0
  0
CLASS
  1
AMDTDMMENUSTATE
  2
AmdtDmMenuState
  3
AcMechDwgViewMgmt
 90
        0
 91
        1
280
     0
281
     0
  0
CLASS
  1
AMDTAMMENUSTATE
  2
AmdtAmMenuState
  3
DesignerAssemblies
 90
        0
 91
        1
280
     0
281
     0
  0
CLASS
  1
ACAMPROJECT
  2
AcAmProject
  3
DesignerAssemblies
 90
        0
 91
        1
280
     0
281
     0
  0
CLASS
  1
ACAMGRCOMPDEF
  2
AcAmGrCompDef
  3
DesignerAssemblies
 90
        0
 91
        1
280
     0
281
     0
  0
CLASS
  1
ACCMCONTEXT
  2
AcCmContext
  3
DesignerAssemblies
 90
        0
 91
        1
280
     0
281
     0
  0
CLASS
  1
ACAMCOMPDEF
  2
AcAmCompDef
  3
DesignerAssemblies
 90
        0
 91
        1
280
     0
281
     0
  0
CLASS
  1
ACAMCOMPDEFMGR
  2
AcAmCompDefMgr
  3
DesignerAssemblies
 90
        0
 91
        1
280
     0
281
     0
  0
CLASS
  1
AMCONTEXTMGR
  2
AcAmContextMgr
  3
DesignerAssemblies
 90
        0
 91
        1
280
     0
281
     0
  0
CLASS
  1
ACAMCONTEXTMODELER
  2
AcAmContextModeler
  3
DesignerAssemblies
 90
        0
 91
        1
280
     0
281
     0
  0
CLASS
  1
ACMTHREADLINESTANDARDDIN
  2
AmdtThreadLineStdDIN
  3
"Amdt_StdImp|Product Description: AutoCAD Mechanical|Company: Autodesk"
 90
        0
 91
        1
280
     0
281
     0
  0
CLASS
  1
CATALOGSTATE
  2
AcAmCatalogState
  3
DesignerAssemblies
 90
        0
 91
        1
280
     0
281
     0
  0
CLASS
  1
ACAMGRCOMPDEFSET
  2
AcAmGrCompDefSet
  3
DesignerAssemblies
 90
        0
 91
        1
280
     0
281
     0
  0
CLASS
  1
AMDTBROWSERDBTAB
  2
AmdtBrowserDbTab
  3
McadcomServices
 90
        0
 91
        1
280
     0
281
     0
  0
CLASS
  1
CBROWSERAPPOBJECT
  2
CBrowserAppObject
  3
McadcomServices
 90
        0
 91
        3
280
     0
281
     0
  0
CLASS
  1
DM_PLACEHOLDER
  2
AcDmSelsetPlaceholder
  3
AcMechDwgViewMgmt
 90
        0
 91
        1
280
     0
281
     0
  0
CLASS
  1
MATERIAL
  2
AcDbMaterial
  3
ObjectDBX Classes
 90
     1153
 91
        3
280
     0
281
     0
  0
CLASS
  1
VISUALSTYLE
  2
AcDbVisualStyle
  3
ObjectDBX Classes
 90
     4095
 91
       16
280
     0
281
     0
  0
CLASS
  1
TABLESTYLE
  2
AcDbTableStyle
  3
ObjectDBX Classes
 90
     4095
 91
        1
280
     0
281
     0
  0
CLASS
  1
ACRFATTGENMGR
  2
AcRfAttGeneralMgr
  3
AcAttribServices
 90
        0
 91
        1
280
     0
281
     0
  0
CLASS
  1
ACRFOBJATTMGR
  2
AcRfObjAttGroupMgr
  3
AcAttribServices
 90
        0
 91
        1
280
     0
281
     0
  0
CLASS
  1
ACRFMCADAPIATTHOLDER
  2
AcRfMCADAPIAttHolder
  3
AcAttribServices
 90
        0
 91
        1
280
     0
281
     0
  0
CLASS
  1
AMDTSYSATTR
  2
AmdtSystemAttribute
  3
AcAttribServices
 90
        0
 91
       28
280
     0
281
     0
  0
CLASS
  1
ACMTAPERSTANDARDDIN
  2
AcmTaperStdDIN
  3
"Amdt_StdImp|Product Description: AutoCAD Mechanical|Company: Autodesk"
 90
        0
 91
        1
280
     0
281
     0
  0
CLASS
  1
CAMSSTRUCTBTNSTATE
  2
StructBtnState
  3
L"DesignerAssemblies"
 90
        0
 91
        1
280
     0
281
     0
  0
CLASS
  1
SORTENTSTABLE
  2
AcDbSortentsTable
  3
ObjectDBX Classes
 90
        0
 91
        2
280
     0
281
     0
  0
CLASS
  1
EXACXREFPANELOBJECT
  2
ExAcXREFPanelObject
  3
EXAC_ESW
 90
     1025
 91
        0
280
     0
281
     0
  0
CLASS
  1
NPOCOLLECTION
  2
AcDbImpNonPersistentObjectsCollection
  3
ObjectDBX Classes
 90
     1153
 91
        0
280
     0
281
     0
  0
CLASS
  1
STDPART2D
  2
AmgStdPart
  3
"AmgStdPart|Product Description: AutoCAD Mechanical|Company: Autodesk"
 90
     3071
 91
        0
280
     0
281
     1
  0
CLASS
  1
ACDBSTDPARTRES_LINE
  2
AcDbStdPartRes_Line
  3
"AmgStdPart|Product Description: AutoCAD Mechanical|Company: Autodesk"
 90
        0
 91
        0
280
     0
281
     0
  0
CLASS
  1
DIMASSOC
  2
AcDbDimAssoc
  3
"AcDbDimAssoc|Product Desc:     AcDim ARX App For Dimension|Company:          Autodesk, Inc.|WEB Address:      www.autodesk.com"
 90
        0
 91
       22
280
     0
281
     0
  0
ENDSEC
  0
SECTION
  2
TABLES
  0
TABLE
  2
VPORT
  5
8
330
0
100
AcDbSymbolTable
 70
     1
  0
VPORT
  5
42CA
330
8
100
AcDbSymbolTableRecord
100
AcDbViewportTableRecord
  2
*Active
 70
     0
 10
0.0
 20
0.0
 11
1.0
 21
1.0
 12
0.0159963562289249
 22
687.499136551356
 13
0.0
 23
0.0
 14
2.5
 24
2.5
 15
10.0
 25
10.0
 16
0.0
 26
0.0
 36
1.0
 17
0.0
 27
0.0
 37
0.0
 40
1612.924793763651
 41
2.285889570552147
 42
50.0
 43
0.0
 44
0.0
 50
0.0
 51
0.0
 71
    16
 72
  2000
 73
     1
 74
     3
 75
     0
 76
     0
 77
     0
 78
     0
281
     0
 65
     1
110
0.0
120
0.0
130
0.0
111
1.0
121
0.0
131
0.0
112
0.0
122
1.0
132
0.0
 79
     0
146
0.0
348
42D5
 60
     3
 61
     5
292
     1
282
     1
141
0.0
142
0.0
 63
   250
421
  3355443
  0
ENDTAB
  0
TABLE
  2
LTYPE
  5
5
330
0
100
AcDbSymbolTable
 70
    14
  0
LTYPE
  5
14
330
5
100
AcDbSymbolTableRecord
100
AcDbLinetypeTableRecord
  2
ByBlock
 70
     0
  3

 72
    65
 73
     0
 40
0.0
  0
LTYPE
  5
15
330
5
100
AcDbSymbolTableRecord
100
AcDbLinetypeTableRecord
  2
ByLayer
 70
     0
  3

 72
    65
 73
     0
 40
0.0
  0
LTYPE
  5
16
330
5
100
AcDbSymbolTableRecord
100
AcDbLinetypeTableRecord
  2
Continuous
 70
     0
  3
Solid line
 72
    65
 73
     0
 40
0.0
  0
LTYPE
  5
50
330
5
100
AcDbSymbolTableRecord
100
AcDbLinetypeTableRecord
  2
Amconstr
 70
     0
  3
_______________________
 72
    65
 73
     2
 40
9999.0
 49
9999.0
 74
     0
 49
0.0
 74
     0
  0
LTYPE
  5
55
330
5
100
AcDbSymbolTableRecord
100
AcDbLinetypeTableRecord
  2
Amzigzag
 70
     0
  3
/\/-/\/-/\/-/\/-/\/-/\/
 72
    65
 73
     2
 40
11.0001
 49
0.0001
 74
     4
 75
   135
340
54
 46
0.04
 50
0.0
 44
0.0
 45
0.0
 49
-11.0
 74
     0
  0
LTYPE
  5
56
330
5
100
AcDbSymbolTableRecord
100
AcDbLinetypeTableRecord
  2
AM_DIN_F_W050
 70
     0
  3
__ __ __ __ __ __ __ __ __ __ __ __ __ __ __
 72
    65
 73
     2
 40
6.25
 49
4.75
 74
     0
 49
-1.5
 74
     0
  0
LTYPE
  5
57
330
5
100
AcDbSymbolTableRecord
100
AcDbLinetypeTableRecord
  2
AM_DIN_G_W050
 70
     0
  3
____ . ____ . ____ . ____ . ____ . ____ . ____
 72
    65
 73
     4
 40
13.75
 49
9.75
 74
     0
 49
-1.5
 74
     0
 49
1.0
 74
     0
 49
-1.5
 74
     0
  0
LTYPE
  5
58
330
5
100
AcDbSymbolTableRecord
100
AcDbLinetypeTableRecord
  2
AM_DIN_K_W050
 70
     0
  3
_____ . . _____ . . _____ . . ____ .. ____
 72
    65
 73
     6
 40
16.25
 49
9.75
 74
     0
 49
-1.5
 74
     0
 49
1.0
 74
     0
 49
-1.5
 74
     0
 49
1.0
 74
     0
 49
-1.5
 74
     0
  0
LTYPE
  5
59
330
5
100
AcDbSymbolTableRecord
100
AcDbLinetypeTableRecord
  2
AM_DIN_G_W050x2
 70
     0
  3
__ . __ . __ . __ . __ . __
 72
    65
 73
     4
 40
6.875
 49
4.75
 74
     0
 49
-0.875
 74
     0
 49
0.375
 74
     0
 49
-0.875
 74
     0
  0
LTYPE
  5
5A
330
5
100
AcDbSymbolTableRecord
100
AcDbLinetypeTableRecord
  2
AM_DIN_F_W050x2
 70
     0
  3
 _ _ _ _ _ _ _ _ _ _ _ _
 72
    65
 73
     2
 40
3.125
 49
2.25
 74
     0
 49
-0.875
 74
     0
  0
LTYPE
  5
67
330
5
100
AcDbSymbolTableRecord
100
AcDbLinetypeTableRecord
  2
ACDINWELD
 70
     0
  3
_ _ _ _ _
 72
    65
 73
     2
 40
2.0
 49
2.0
 74
     0
 49
-1.0
 74
     0
  0
LTYPE
  5
68
330
5
100
AcDbSymbolTableRecord
100
AcDbLinetypeTableRecord
  2
ACDINTGB
 70
     0
  3
__ . . __ . .
 72
    65
 73
     6
 40
9.0
 49
4.0
 74
     0
 49
-1.0
 74
     0
 49
1.0
 74
     0
 49
-1.0
 74
     0
 49
1.0
 74
     0
 49
-1.0
 74
     0
  0
LTYPE
  5
69
330
5
100
AcDbSymbolTableRecord
100
AcDbLinetypeTableRecord
  2
ACDINTGL
 70
     0
  3
_ _ _ _ _
 72
    65
 73
     2
 40
3.0
 49
2.0
 74
     0
 49
-1.0
 74
     0
  0
LTYPE
  5
6B
330
5
100
AcDbSymbolTableRecord
100
AcDbLinetypeTableRecord
  2
CENTER
 70
     0
  3
__ . __
 72
    65
 73
     4
 40
7.0
 49
4.0
 74
     0
 49
-1.0
 74
     0
 49
1.0
 74
     0
 49
-1.0
 74
     0
  0
LTYPE
  5
410D
330
5
100
AcDbSymbolTableRecord
100
AcDbLinetypeTableRecord
  2
HIDDEN
 70
     0
  3
Verdeckt
 72
    65
 73
     2
 40
9.525
 49
6.349999999999999
 74
     0
 49
-3.174999999999999
 74
     0
  0
LTYPE
  5
410E
330
5
100
AcDbSymbolTableRecord
100
AcDbLinetypeTableRecord
  2
PHANTOM2
 70
     0
  3
Phantom (.5x) ___ _ _ ___ _ _ ___ _ _ ___ _ _
 72
    65
 73
     6
 40
31.75
 49
15.875
 74
     0
 49
-3.174999999999999
 74
     0
 49
3.174999999999999
 74
     0
 49
-3.174999999999999
 74
     0
 49
3.174999999999999
 74
     0
 49
-3.174999999999999
 74
     0
  0
ENDTAB
  0
TABLE
  2
LAYER
  5
2
102
{ACAD_XDICTIONARY
360
42A1
102
}
330
0
100
AcDbSymbolTable
 70
     7
  0
LAYER
  5
10
330
2
100
AcDbSymbolTableRecord
100
AcDbLayerTableRecord
  2
0
 70
     0
 62
     7
  6
Continuous
370
    50
390
F
347
42CE
  0
LAYER
  5
454A
330
2
100
AcDbSymbolTableRecord
100
AcDbLayerTableRecord
  2
Defpoints
 70
     0
 62
     7
  6
Continuous
290
     0
370
    -3
390
F
347
42CE
  0
ENDTAB
  0
TABLE
  2
STYLE
  5
3
330
0
100
AcDbSymbolTable
 70
     7
  0
STYLE
  5
11
330
3
100
AcDbSymbolTableRecord
100
AcDbTextStyleTableRecord
  2
STANDARD
 70
     0
 40
0.0
 41
1.0
 50
0.0
 71
     0
 42
2.5
  3
ARIAL.TTF
  4

1001
ACAD
1000
Arial
1071
       34
  0
STYLE
  5
54
330
3
100
AcDbSymbolTableRecord
100
AcDbTextStyleTableRecord
  2

 70
     1
 40
0.0
 41
1.0
 50
0.0
 71
     0
 42
2.5
  3
ltypeshp.shx
  4

  0
STYLE
  5
5B
330
3
100
AcDbSymbolTableRecord
100
AcDbTextStyleTableRecord
  2
ACDINTS
 70
     0
 40
1.0
 41
1.0
 50
0.0
 71
     0
 42
2.5
  3
ARIAL.TTF
  4

1001
ACAD
1000
Arial
1071
       34
  0
STYLE
  5
66
330
3
100
AcDbSymbolTableRecord
100
AcDbTextStyleTableRecord
  2
ACDINGDT
 70
     0
 40
0.0
 41
1.0
 50
0.0
 71
     0
 42
2.5
  3
amgdt.shx
  4

  0
ENDTAB
  0
TABLE
  2
VIEW
  5
6
330
0
100
AcDbSymbolTable
 70
    10
  0
VIEW
  5
29C
330
6
100
AcDbSymbolTableRecord
100
AcDbViewTableRecord
  2
AM_VIEW1
 70
     1
 40
146.0
 10
248.1017382920079
 20
219.0
 41
333.5098039215686
 11
0.0
 21
0.0
 31
1.0
 12
0.0
 22
0.0
 32
0.0
 42
50.0
 43
0.0
 44
0.0
 50
0.0
 71
     0
281
     0
 72
     0
 73
     0
348
42D5
  0
VIEW
  5
29D
330
6
100
AcDbSymbolTableRecord
100
AcDbViewTableRecord
  2
AM_VIEW2
 70
     1
 40
146.0
 10
119.5919343704392
 20
219.0
 41
333.5098039215686
 11
0.0
 21
0.0
 31
1.0
 12
0.0
 22
0.0
 32
0.0
 42
50.0
 43
0.0
 44
0.0
 50
0.0
 71
     0
281
     0
 72
     0
 73
     0
348
42D5
  0
VIEW
  5
29E
330
6
100
AcDbSymbolTableRecord
100
AcDbViewTableRecord
  2
AM_VIEW3
 70
     1
 40
146.0
 10
248.1017382920079
 20
73.0
 41
333.5098039215686
 11
0.0
 21
0.0
 31
1.0
 12
0.0
 22
0.0
 32
0.0
 42
50.0
 43
0.0
 44
0.0
 50
0.0
 71
     0
281
     0
 72
     0
 73
     0
348
42D5
  0
VIEW
  5
29F
330
6
100
AcDbSymbolTableRecord
100
AcDbViewTableRecord
  2
AM_VIEW4
 70
     1
 40
146.0
 10
119.5919343704392
 20
73.0
 41
333.5098039215686
 11
0.0
 21
0.0
 31
1.0
 12
0.0
 22
0.0
 32
0.0
 42
50.0
 43
0.0
 44
0.0
 50
0.0
 71
     0
281
     0
 72
     0
 73
     0
348
42D5
  0
VIEW
  5
2A0
330
6
100
AcDbSymbolTableRecord
100
AcDbViewTableRecord
  2
AM_VIEW5
 70
     1
 40
146.0
 10
183.8468363312236
 20
146.0
 41
333.5098039215686
 11
0.0
 21
0.0
 31
1.0
 12
0.0
 22
0.0
 32
0.0
 42
50.0
 43
0.0
 44
0.0
 50
0.0
 71
     0
281
     0
 72
     0
 73
     0
348
42D5
  0
VIEW
  5
2A1
330
6
100
AcDbSymbolTableRecord
100
AcDbViewTableRecord
  2
AM_VIEW6
 70
     1
 40
291.9970800000001
 10
183.8468363312236
 20
146.0
 41
667.0129376470588
 11
0.0
 21
0.0
 31
1.0
 12
0.0
 22
0.0
 32
0.0
 42
50.0
 43
0.0
 44
0.0
 50
0.0
 71
     0
281
     0
 72
     0
 73
     0
348
42D5
  0
ENDTAB
  0
TABLE
  2
UCS
  5
7
330
0
100
AcDbSymbolTable
 70
     0
  0
ENDTAB
  0
TABLE
  2
APPID
  5
9
330
0
100
AcDbSymbolTable
 70
    32
  0
APPID
  5
12
330
9
100
AcDbSymbolTableRecord
100
AcDbRegAppTableRecord
  2
ACAD
 70
     0
  0
APPID
  5
30
330
9
100
AcDbSymbolTableRecord
100
AcDbRegAppTableRecord
  2
MCAD_NO_VIS
 70
     0
  0
APPID
  5
31
330
9
100
AcDbSymbolTableRecord
100
AcDbRegAppTableRecord
  2
ACAD_TEMP_GRAPHIC
 70
     0
  0
APPID
  5
42
330
9
100
AcDbSymbolTableRecord
100
AcDbRegAppTableRecord
  2
ACATTRIBSERVICES
 70
     0
  0
APPID
  5
87
330
9
100
AcDbSymbolTableRecord
100
AcDbRegAppTableRecord
  2
GENIUS_GENBLLY_14
 70
     0
  0
APPID
  5
1A9
330
9
100
AcDbSymbolTableRecord
100
AcDbRegAppTableRecord
  2
GENIUS_GENTRA_14
 70
     0
  0
APPID
  5
1AA
330
9
100
AcDbSymbolTableRecord
100
AcDbRegAppTableRecord
  2
GENIUS_GENOBJ-N-TIT_13
 70
     0
  0
APPID
  5
1AB
330
9
100
AcDbSymbolTableRecord
100
AcDbRegAppTableRecord
  2
GENIUS_GENODEF_13
 70
     0
  0
APPID
  5
1AC
330
9
100
AcDbSymbolTableRecord
100
AcDbRegAppTableRecord
  2
GENIUS_GENOLIS_13
 70
     0
  0
APPID
  5
1AD
330
9
100
AcDbSymbolTableRecord
100
AcDbRegAppTableRecord
  2
GENIUS_GENOENT_13
 70
     0
  0
APPID
  5
1AE
330
9
100
AcDbSymbolTableRecord
100
AcDbRegAppTableRecord
  2
GENIUS_GENTITLE_13
 70
     0
  0
APPID
  5
1AF
330
9
100
AcDbSymbolTableRecord
100
AcDbRegAppTableRecord
  2
GENIUS_GENOREF_13
 70
     0
  0
APPID
  5
1B0
330
9
100
AcDbSymbolTableRecord
100
AcDbRegAppTableRecord
  2
GENIUS_GENSCREG_15
 70
     0
  0
APPID
  5
1B1
330
9
100
AcDbSymbolTableRecord
100
AcDbRegAppTableRecord
  2
GENIUS_GENOBJ-N-SDF_13
 70
     0
  0
APPID
  5
C8B
330
9
100
AcDbSymbolTableRecord
100
AcDbRegAppTableRecord
  2
GENIUS_GENDIMSH_14
 70
     0
  0
APPID
  5
4038
330
9
100
AcDbSymbolTableRecord
100
AcDbRegAppTableRecord
  2
GENIUS_AMGTXT_16
 70
     0
  0
APPID
  5
4110
330
9
100
AcDbSymbolTableRecord
100
AcDbRegAppTableRecord
  2
AD_DRAW
 70
     0
  0
APPID
  5
412E
330
9
100
AcDbSymbolTableRecord
100
AcDbRegAppTableRecord
  2
DESIGNERASSEMBLIES
 70
     0
  0
APPID
  5
4133
330
9
100
AcDbSymbolTableRecord
100
AcDbRegAppTableRecord
  2
ACADM_DIM_EDIT
 70
     0
  0
APPID
  5
4134
330
9
100
AcDbSymbolTableRecord
100
AcDbRegAppTableRecord
  2
AMDT_DM_ADJ
 70
     0
  0
APPID
  5
431F
330
9
100
AcDbSymbolTableRecord
100
AcDbRegAppTableRecord
  2
ACAD_PSEXT
 70
     0
  0
APPID
  5
4449
330
9
100
AcDbSymbolTableRecord
100
AcDbRegAppTableRecord
  2
GENIUS_GENREC_14
 70
     0
  0
APPID
  5
444A
330
9
100
AcDbSymbolTableRecord
100
AcDbRegAppTableRecord
  2
GENIUS_GENOBJ-N-REC_13
 70
     0
  0
APPID
  5
4455
330
9
100
AcDbSymbolTableRecord
100
AcDbRegAppTableRecord
  2
GEVID1372679548
 70
     0
  0
APPID
  5
4456
330
9
100
AcDbSymbolTableRecord
100
AcDbRegAppTableRecord
  2
GEVDC
 70
     0
  0
APPID
  5
4457
330
9
100
AcDbSymbolTableRecord
100
AcDbRegAppTableRecord
  2
GEVCON
 70
     0
  0
APPID
  5
445A
330
9
100
AcDbSymbolTableRecord
100
AcDbRegAppTableRecord
  2
AcAecLayerStandard
 70
     0
  0
APPID
  5
445B
330
9
100
AcDbSymbolTableRecord
100
AcDbRegAppTableRecord
  2
GENIUS_GENBH_13
 70
     0
  0
APPID
  5
445D
330
9
100
AcDbSymbolTableRecord
100
AcDbRegAppTableRecord
  2
GENIUS_GENOBJ-NBEHI-BHF_13
 70
     0
  0
APPID
  5
445F
330
9
100
AcDbSymbolTableRecord
100
AcDbRegAppTableRecord
  2
GENIUS_GENOBJ-NBEHI-BHB_13
 70
     0
  0
APPID
  5
446F
330
9
100
AcDbSymbolTableRecord
100
AcDbRegAppTableRecord
  2
GENIUS_GENOBJ-F-SCPASSM_13
 70
     0
  0
APPID
  5
5F82
330
9
100
AcDbSymbolTableRecord
100
AcDbRegAppTableRecord
  2
ACAD_EXEMPT_FROM_CAD_STANDARDS
 70
     0
  0
ENDTAB
  0
TABLE
  2
DIMSTYLE
  5
A
330
0
100
AcDbSymbolTable
 70
     9
100
AcDbDimStyleTable
 71
     1
340
6E
  0
DIMSTYLE
105
6E
330
A
100
AcDbSymbolTableRecord
100
AcDbDimStyleTableRecord
  2
AM_DIN
 70
     0
  4
"
 41
2.5
 42
1.0
 43
10.0
 44
1.0
 47
0.1
 48
0.1
 73
     0
 74
     0
 77
     1
 78
     8
 79
     2
140
3.5
141
0.0
143
0.0393701
146
0.71
147
1.5
172
     1
176
   256
177
   256
178
     2
271
     2
272
     3
283
     0
284
     8
340
11
371
    -1
372
    -1
  0
DIMSTYLE
105
6F
330
A
100
AcDbSymbolTableRecord
100
AcDbDimStyleTableRecord
  2
AM_DIN$3
 70
     0
  4
"
 41
2.5
 42
1.0
 43
10.0
 44
1.0
 47
0.1
 48
0.1
 73
     0
 77
     1
 78
     8
 79
     2
140
3.5
141
0.0
143
0.0393701
146
0.71
147
1.5
176
   256
177
   256
178
     2
271
     2
272
     3
283
     0
284
     8
288
     1
289
     0
340
11
371
    -1
372
    -1
  0
DIMSTYLE
105
70
330
A
100
AcDbSymbolTableRecord
100
AcDbDimStyleTableRecord
  2
AM_DIN$4
 70
     0
  4
"
 41
2.5
 42
1.0
 43
10.0
 44
1.0
 47
0.1
 48
0.1
 73
     0
 77
     1
 78
     8
 79
     2
140
3.5
141
0.0
143
0.0393701
146
0.71
147
1.5
176
   256
177
   256
178
     2
271
     2
272
     3
283
     0
284
     8
288
     1
289
     0
340
11
371
    -1
372
    -1
  0
DIMSTYLE
105
71
330
A
100
AcDbSymbolTableRecord
100
AcDbDimStyleTableRecord
  2
AM_DIN$6
 70
     0
  4
"
 41
2.5
 42
1.0
 43
10.0
 44
1.0
 47
0.1
 48
0.1
 73
     0
 74
     0
 78
     8
 79
     2
140
3.5
141
0.0
143
0.0393701
146
0.71
147
1.5
172
     1
176
   256
177
   256
178
     2
271
     2
272
     3
283
     0
284
     8
340
11
371
    -1
372
    -1
  0
DIMSTYLE
105
72
330
A
100
AcDbSymbolTableRecord
100
AcDbDimStyleTableRecord
  2
AM_DIN$7
 70
     0
  4
"
 41
2.5
 42
1.0
 43
10.0
 44
1.0
 47
0.1
 48
0.1
 73
     0
 74
     0
 77
     1
 78
     8
 79
     2
140
5.0
141
0.0
143
0.0393701
146
0.71
147
1.5
172
     1
176
   256
177
   256
178
     2
271
     2
272
     3
283
     0
284
     8
340
11
371
    -1
372
    -1
  0
DIMSTYLE
105
73
330
A
100
AcDbSymbolTableRecord
100
AcDbDimStyleTableRecord
  2
AM_DIN$SF
 70
     0
  4
"
 41
2.5
 42
1.0
 43
10.0
 44
1.0
 47
0.1
 48
0.1
 73
     0
 74
     0
 75
     1
 76
     1
 77
     1
 78
     8
 79
     2
140
3.5
141
0.0
143
0.0393701
146
0.71
147
1.5
172
     1
176
   256
177
   256
178
     2
271
     2
272
     3
274
     4
283
     0
284
     8
340
11
371
    -1
372
    -1
  0
DIMSTYLE
105
78
330
A
100
AcDbSymbolTableRecord
100
AcDbDimStyleTableRecord
  2
AM_DIN$SH
 70
     0
  4
"
 41
2.5
 42
1.0
 43
10.0
 44
1.0
 47
0.1
 48
0.1
 73
     0
 74
     0
 75
     1
 76
     1
 77
     1
 78
     8
 79
     2
140
3.5
141
0.0
143
0.0393701
144
2.0
146
0.71
147
1.5
172
     1
173
     1
176
   256
177
   256
178
     2
271
     2
272
     3
274
     4
283
     0
284
     8
340
11
343
74
371
    -1
372
    -1
  0
DIMSTYLE
105
4546
330
A
100
AcDbSymbolTableRecord
100
AcDbDimStyleTableRecord
  2
AM_DIN$0
 70
     0
  4
"
 41
2.5
 42
1.0
 43
10.0
 44
1.0
 47
0.1
 48
0.1
 73
     0
 74
     0
 77
     1
 78
     8
 79
     2
140
3.5
141
0.0
143
0.0393701
146
0.71
147
1.5
172
     1
176
   256
177
   256
178
     2
271
     2
272
     3
283
     0
284
     8
340
11
371
    -1
372
    -1
  0
ENDTAB
  0
TABLE
  2
BLOCK_RECORD
  5
1
330
0
100
AcDbSymbolTable
 70
    30
  0
BLOCK_RECORD
  5
1F
102
{ACAD_XDICTIONARY
360
2A3
102
}
330
1
100
AcDbSymbolTableRecord
100
AcDbBlockTableRecord
  2
*Model_Space
340
22
 70
     0
280
     1
281
     0
  0
BLOCK_RECORD
  5
1B
102
{ACAD_XDICTIONARY
360
5FFF
102
}
330
1
100
AcDbSymbolTableRecord
100
AcDbBlockTableRecord
  2
*Paper_Space
340
1E
 70
     0
280
     1
281
     0
  0
BLOCK_RECORD
  5
74
330
1
100
AcDbSymbolTableRecord
100
AcDbBlockTableRecord
  2
GENAXEH
340
0
310
2800000020000000200000000100080000000000000400000000000000000000000000000000000000000000000080000080000000808000800000008000800080800000C0C0C000C0DCC000F0CAA6000020400000206000002080000020A0000020C0000020E00000400000004020000040400000406000004080000040A0
310
000040C0000040E00000600000006020000060400000606000006080000060A0000060C0000060E00000800000008020000080400000806000008080000080A0000080C0000080E00000A0000000A0200000A0400000A0600000A0800000A0A00000A0C00000A0E00000C0000000C0200000C0400000C0600000C0800000C0
310
A00000C0C00000C0E00000E0000000E0200000E0400000E0600000E0800000E0A00000E0C00000E0E00040000000400020004000400040006000400080004000A0004000C0004000E00040200000402020004020400040206000402080004020A0004020C0004020E000404000004040200040404000404060004040800040
310
40A0004040C0004040E00040600000406020004060400040606000406080004060A0004060C0004060E00040800000408020004080400040806000408080004080A0004080C0004080E00040A0000040A0200040A0400040A0600040A0800040A0A00040A0C00040A0E00040C0000040C0200040C0400040C0600040C08000
310
40C0A00040C0C00040C0E00040E0000040E0200040E0400040E0600040E0800040E0A00040E0C00040E0E00080000000800020008000400080006000800080008000A0008000C0008000E00080200000802020008020400080206000802080008020A0008020C0008020E00080400000804020008040400080406000804080
310
008040A0008040C0008040E00080600000806020008060400080606000806080008060A0008060C0008060E00080800000808020008080400080806000808080008080A0008080C0008080E00080A0000080A0200080A0400080A0600080A0800080A0A00080A0C00080A0E00080C0000080C0200080C0400080C0600080C0
310
800080C0A00080C0C00080C0E00080E0000080E0200080E0400080E0600080E0800080E0A00080E0C00080E0E000C0000000C0002000C0004000C0006000C0008000C000A000C000C000C000E000C0200000C0202000C0204000C0206000C0208000C020A000C020C000C020E000C0400000C0402000C0404000C0406000C0
310
408000C040A000C040C000C040E000C0600000C0602000C0604000C0606000C0608000C060A000C060C000C060E000C0800000C0802000C0804000C0806000C0808000C080A000C080C000C080E000C0A00000C0A02000C0A04000C0A06000C0A08000C0A0A000C0A0C000C0A0E000C0C00000C0C02000C0C04000C0C06000
310
C0C08000C0C0A000F0FBFF00A4A0A000808080000000FF0000FF000000FFFF00FF000000FF00FF00FFFF0000FFFFFF0000000000000000000000000000000000000000000000000000000000000000000000000000000000000000000000000000000000000000000000000000000000000000000000000000000000000000
310
00000000000000000000000000000000000000000000000000000000000000000000000000000000000000000000000000000000000000000000000000000000000000000000000000000000000000000000000000000000000000000000000000000000000000000000000000000000000000000000000000000000000000
310
00000000000000000000000000000000000000000000000000000000000000000000000000000000000000000000000000000000000000000000000000000000000000000000000000000000000000000000000000000000000000000000000000000000000000000000000000000000000000000000000000000000000000
310
00000000000000000000000000000000000000000000000000000000000000000000000000000000000000000000000000000000000000000000000000000000000000000000000000000000000000000000000000000000000000000000000000000000000000000000000000000000000000000000000000000000000000
310
0000000000000000000000000000000000000000000000000000000000000000000000000000000000000000000000000000000000FFFFFFFFFFFFFFFFFFFFFFFFFFFFFFFFFFFFFFFFFFFFFFFFFFFFFFFFFFFF0000000000000000000000000000000000000000000000000000000000000000000000000000000000000000
310
00000000000000000000000000000000000000000000000000000000000000000000000000000000000000000000000000000000000000000000000000000000000000000000000000000000000000000000000000000000000000000000000000000000000000000000000000000000000000000000000000000000000000
310
00000000000000000000000000000000000000000000000000000000000000000000000000000000000000000000000000000000000000000000000000000000000000000000000000000000000000000000000000000000000000000000000000000000000000000000000000000000000000000000000000000000000000
310
00000000000000000000000000000000000000000000000000000000000000000000000000000000000000000000000000000000000000000000000000000000000000000000000000000000000000000000000000000000000000000000000000000000000000000000000000000000000000000000000000000000000000
310
0000000000000000000000000000000000000000000000000000000000000000000000000000000000000000000000000000000000000000
 70
     0
280
     1
281
     0
  0
ENDTAB
  0
ENDSEC
  0
SECTION
  2
BLOCKS
  0
BLOCK
  5
20
330
1F
100
AcDbEntity
  8
0
100
AcDbBlockBegin
  2
*Model_Space
 70
     0
 10
0.0
 20
0.0
 30
0.0
  3
*Model_Space
  1

  0
ENDBLK
  5
21
330
1F
100
AcDbEntity
  8
0
100
AcDbBlockEnd
  0
BLOCK
  5
1C
330
1B
100
AcDbEntity
 67
     1
  8
0
100
AcDbBlockBegin
  2
*Paper_Space
 70
     0
 10
0.0
 20
0.0
 30
0.0
  3
*Paper_Space
  1

  0
ENDBLK
  5
1D
330
1B
100
AcDbEntity
 67
     1
  8
0
100
AcDbBlockEnd
  0
BLOCK
  5
76
330
74
100
AcDbEntity
  8
0
100
AcDbBlockBegin
  2
GENAXEH
 70
     0
 10
0.0
 20
0.0
 30
0.0
  3
GENAXEH
  1

  0
LINE
  5
75
330
74
100
AcDbEntity
  8
0
100
AcDbLine
 10
-1.0
 20
0.0
 30
0.0
 11
1.0
 21
0.0
 31
0.0
  0
ENDBLK
  5
77
330
74
100
AcDbEntity
  8
0
100
AcDbBlockEnd
  0
ENDSEC
  0
SECTION
  2
ENTITIES
  0
LWPOLYLINE
  5
7AC8
330
1F
100
AcDbEntity
  8
0
100
AcDbPolyline
 90
        4
 70
     1
 43
0.0
 10
-94.99999999999976
 20
1408.0
 10
95.00000000000023
 20
1408.0
 10
95.00000000000023
 20
1393.0
 10
-94.99999999999976
 20
1393.0
1001
GENIUS_GENREC_14
1002
{
1000
PYDIR
1011
-94.99999999999976
1021
1393.0
1031
0.0
1002
}
1002
{
1000
PXDIR
1011
95.00000000000023
1021
1408.0
1031
0.0
1002
}
1002
{
1000
PORI
1011
-94.99999999999976
1021
1408.0
1031
0.0
1002
}
1002
{
1000
PINS
1011
-94.99999999999976
1021
1408.0
1031
0.0
1002
}
1002
{
1000
PINS2
1011
95.00000000000023
1021
1393.0
1031
0.0
1002
}
1002
{
1000
C
1070
     1
1002
}
1001
GENIUS_GENOBJ-N-REC_13
1002
{
1000
OWNER
1000
GEN
1002
}
1001
GENIUS_GENODEF_13
1002
{
1000
HIER
1070
     0
1002
}
1002
{
1000
MANEDIT
1070
     0
1002
}
1002
{
1000
NOSEL
1070
     0
1002
}
1002
{
1000
BEHIND
1070
     0
1002
}
1002
{
1000
OTHER
1070
     0
1002
}
1002
{
1000
REACTOR
1002
}
  0
LWPOLYLINE
  5
7AC9
330
1F
100
AcDbEntity
  8
0
100
AcDbPolyline
 90
        4
 70
     1
 43
0.0
 10
-105.0000000000001
 20
0.0
 10
105.0000000000001
 20
0.0
 10
105.0000000000001
 20
15.0
 10
-105.0000000000001
 20
15.0
1001
GENIUS_GENREC_14
1002
{
1000
PYDIR
1011
-105.0000000000001
1021
15.0
1031
0.0
1002
}
1002
{
1000
PXDIR
1011
105.0000000000001
1021
0.0
1031
0.0
1002
}
1002
{
1000
PORI
1011
-105.0000000000001
1021
0.0
1031
0.0
1002
}
1002
{
1000
PINS
1011
-105.0000000000001
1021
0.0
1031
0.0
1002
}
1002
{
1000
PINS2
1011
105.0000000000001
1021
15.0
1031
0.0
1002
}
1002
{
1000
C
1070
     1
1002
}
1001
GENIUS_GENOBJ-N-REC_13
1002
{
1000
OWNER
1000
GEN
1002
}
1001
GENIUS_GENODEF_13
1002
{
1000
HIER
1070
     0
1002
}
1002
{
1000
MANEDIT
1070
     0
1002
}
1002
{
1000
NOSEL
1070
     0
1002
}
1002
{
1000
BEHIND
1070
     0
1002
}
1002
{
1000
OTHER
1070
     0
1002
}
1002
{
1000
REACTOR
1002
}
  0
LWPOLYLINE
  5
7ACA
330
1F
100
AcDbEntity
  8
0
100
AcDbPolyline
 90
        4
 70
     1
 43
0.0
 10
-70.00000000000011
 20
-113.0
 10
-70.00000000000011
 20
0.0
 10
70.00000000000011
 20
0.0
 10
69.99999999999989
 20
-113.0
1001
GENIUS_GENREC_14
1002
{
1000
PYDIR
1011
69.99999999999989
1021
-113.0
1031
0.0
1002
}
1002
{
1000
PXDIR
1011
-70.00000000000011
1021
0.0
1031
0.0
1002
}
1002
{
1000
PORI
1011
-70.00000000000011
1021
-113.0
1031
0.0
1002
}
1002
{
1000
PINS
1011
-70.00000000000011
1021
-113.0
1031
0.0
1002
}
1002
{
1000
PINS2
1011
70.00000000000011
1021
0.0
1031
0.0
1002
}
1002
{
1000
C
1070
     1
1002
}
1001
GENIUS_GENOBJ-N-REC_13
1002
{
1000
OWNER
1000
GEN
1002
}
1001
GENIUS_GENODEF_13
1002
{
1000
HIER
1070
     0
1002
}
1002
{
1000
MANEDIT
1070
     0
1002
}
1002
{
1000
NOSEL
1070
     0
1002
}
1002
{
1000
BEHIND
1070
     0
1002
}
1002
{
1000
OTHER
1070
     0
1002
}
1002
{
1000
REACTOR
1002
}
  0
LINE
  5
7ACB
330
1F
100
AcDbEntity
  8
0
100
AcDbLine
 10
-84.99999999999976
 20
1418.0
 30
0.0
 11
-84.99999999999989
 21
967.9999999999999
 31
0.0
  0
LINE
  5
7ACC
330
1F
100
AcDbEntity
  8
0
100
AcDbLine
 10
-87.49999999999976
 20
1393.0
 30
0.0
 11
-87.49999999999989
 21
992.9999999999999
 31
0.0
  0
LINE
  5
7ACD
330
1F
100
AcDbEntity
  8
0
100
AcDbLine
 10
-82.49999999999976
 20
1393.0
 30
0.0
 11
-82.49999999999989
 21
992.9999999999999
 31
0.0
  0
LINE
  5
7ACE
330
1F
100
AcDbEntity
  8
0
100
AcDbLine
 10
-87.30999999999971
 20
1408.675499814951
 30
0.0
 11
-87.30999999999971
 21
1411.642042833102
 31
0.0
1001
GENIUS_GENOREF_13
1005
0
1005
0
  0
LINE
  5
7ACF
330
1F
100
AcDbEntity
  8
0
100
AcDbLine
 10
-89.61999999999965
 20
1408.675499814951
 30
0.0
 11
-89.61999999999965
 21
1411.642042833102
 31
0.0
1001
GENIUS_GENOREF_13
1005
0
1005
0
  0
LINE
  5
7AD0
330
1F
100
AcDbEntity
  8
0
100
AcDbLine
 10
-82.68999999999961
 20
1408.675499814951
 30
0.0
 11
-82.68999999999961
 21
1411.642042833102
 31
0.0
1001
GENIUS_GENOREF_13
1005
0
1005
0
  0
LINE
  5
7AD1
330
1F
100
AcDbEntity
  8
0
100
AcDbLine
 10
-80.37999999999966
 20
1408.675499814951
 30
0.0
 11
-80.37999999999966
 21
1411.642042833102
 31
0.0
1001
GENIUS_GENOREF_13
1005
0
1005
0
  0
ARC
  5
7AD2
330
1F
100
AcDbEntity
  8
0
100
AcDbCircle
 10
-84.99999999999976
 20
1415.950066646235
 30
0.0
 40
7.63252399818127
100
AcDbArc
 50
252.3830311596088
 51
287.6169688403911
1001
GENIUS_GENOREF_13
1005
0
1005
0
  0
ARC
  5
7AD3
330
1F
100
AcDbEntity
  8
0
100
AcDbCircle
 10
-81.53499999999963
 20
1410.359907585186
 30
0.0
 40
2.042364937131917
100
AcDbArc
 50
235.5615305952781
 51
295.5615305952727
1001
GENIUS_GENOREF_13
1005
0
1005
0
  0
ARC
  5
7AD4
330
1F
100
AcDbEntity
  8
0
100
AcDbCircle
 10
-88.46499999999968
 20
1410.359907585186
 30
0.0
 40
2.042364937131906
100
AcDbArc
 50
244.4384694047272
 51
304.4384694047219
1001
GENIUS_GENOREF_13
1005
0
1005
0
  0
LINE
  5
7AD5
330
1F
100
AcDbEntity
  8
0
100
AcDbLine
 10
-89.61999999999965
 20
1408.675499814951
 30
0.0
 11
-88.44999999999959
 21
1408.0
 31
0.0
1001
GENIUS_GENOREF_13
1005
0
1005
0
  0
LINE
  5
7AD6
330
1F
100
AcDbEntity
  8
0
100
AcDbLine
 10
-80.37999999999966
 20
1408.675499814951
 30
0.0
 11
-81.54999999999972
 21
1408.0
 31
0.0
1001
GENIUS_GENOREF_13
1005
0
1005
0
  0
LINE
  5
7AD7
330
1F
100
AcDbEntity
  8
0
100
AcDbLine
 10
-88.44999999999959
 20
1408.0
 30
0.0
 11
-81.54999999999972
 21
1408.0
 31
0.0
1001
GENIUS_GENOREF_13
1005
0
1005
0
  0
ARC
  5
7AD8
330
1F
100
AcDbEntity
  8
0
100
AcDbCircle
 10
-84.99999999999976
 20
1404.367476001818
 30
0.0
 40
7.632523998181309
100
AcDbArc
 50
72.38303115960883
 51
107.6169688403912
1001
GENIUS_GENOREF_13
1005
0
1005
0
  0
ARC
  5
7AD9
330
1F
100
AcDbEntity
  8
0
100
AcDbCircle
 10
-81.53499999999963
 20
1409.957635062868
 30
0.0
 40
2.042364937131917
100
AcDbArc
 50
64.43846940472724
 51
124.4384694047219
1001
GENIUS_GENOREF_13
1005
0
1005
0
  0
ARC
  5
7ADA
330
1F
100
AcDbEntity
  8
0
100
AcDbCircle
 10
-88.46499999999968
 20
1409.957635062868
 30
0.0
 40
2.042364937131917
100
AcDbArc
 50
55.56153059527809
 51
115.5615305952727
1001
GENIUS_GENOREF_13
1005
0
1005
0
  0
ARC
  5
7ADB
330
1F
100
AcDbEntity
  8
0
100
AcDbCircle
 10
-84.99999999999976
 20
1414.25
 30
0.0
 40
3.75
100
AcDbArc
 50
0.0
 51
180.0
1001
GENIUS_GENOREF_13
1005
0
1005
0
  0
LINE
  5
7ADC
330
1F
100
AcDbEntity
  8
0
100
AcDbLine
 10
-88.74999999999976
 20
1412.0
 30
0.0
 11
-81.24999999999976
 21
1412.0
 31
0.0
1001
GENIUS_GENOREF_13
1005
0
1005
0
  0
LINE
  5
7ADD
330
1F
100
AcDbEntity
  8
0
100
AcDbLine
 10
-81.24999999999976
 20
1412.0
 30
0.0
 11
-80.99999999999978
 21
1412.0
 31
0.0
1001
GENIUS_GENOREF_13
1005
0
1005
0
  0
LINE
  5
7ADE
330
1F
100
AcDbEntity
  8
0
100
AcDbLine
 10
-81.24999999999976
 20
1414.25
 30
0.0
 11
-81.24999999999976
 21
1412.0
 31
0.0
1001
GENIUS_GENOREF_13
1005
0
1005
0
  0
LINE
  5
7ADF
330
1F
100
AcDbEntity
  8
0
100
AcDbLine
 10
-88.74999999999976
 20
1414.25
 30
0.0
 11
-88.74999999999976
 21
1412.0
 31
0.0
1001
GENIUS_GENOREF_13
1005
0
1005
0
  0
LINE
  5
7AE0
330
1F
100
AcDbEntity
  8
0
100
AcDbLine
 10
-89.61999999999965
 20
1411.642042833102
 30
0.0
 11
-88.99999999999977
 21
1412.0
 31
0.0
1001
GENIUS_GENOREF_13
1005
0
1005
0
  0
LINE
  5
7AE1
330
1F
100
AcDbEntity
  8
0
100
AcDbLine
 10
-80.37999999999966
 20
1411.642042833102
 30
0.0
 11
-80.99999999999978
 21
1412.0
 31
0.0
1001
GENIUS_GENOREF_13
1005
0
1005
0
  0
LINE
  5
7AE2
330
1F
100
AcDbEntity
  8
0
100
AcDbLine
 10
-88.99999999999977
 20
1412.0
 30
0.0
 11
-88.74999999999976
 21
1412.0
 31
0.0
1001
GENIUS_GENOREF_13
1005
0
1005
0
  0
LINE
  5
7AE3
330
1F
100
AcDbEntity
  8
0
100
AcDbLine
 10
-97.31000000000006
 20
-0.6754998149517633
 30
0.0
 11
-97.31000000000006
 21
-3.64204283310255
 31
0.0
  0
LINE
  5
7AE4
330
1F
100
AcDbEntity
  8
0
100
AcDbLine
 10
-99.62000000000001
 20
-0.6754998149517633
 30
0.0
 11
-99.62000000000001
 21
-3.64204283310255
 31
0.0
  0
LINE
  5
7AE5
330
1F
100
AcDbEntity
  8
0
100
AcDbLine
 10
-92.68999999999994
 20
-0.6754998149517633
 30
0.0
 11
-92.68999999999994
 21
-3.64204283310255
 31
0.0
  0
LINE
  5
7AE6
330
1F
100
AcDbEntity
  8
0
100
AcDbLine
 10
-90.38
 20
-0.6754998149517633
 30
0.0
 11
-90.38
 21
-3.64204283310255
 31
0.0
  0
ARC
  5
7AE7
330
1F
100
AcDbEntity
  8
0
100
AcDbCircle
 10
-95.00000000000012
 20
-7.950066646235427
 30
0.0
 40
7.63252399818127
100
AcDbArc
 50
72.38303115960883
 51
107.6169688403912
  0
ARC
  5
7AE8
330
1F
100
AcDbEntity
  8
0
100
AcDbCircle
 10
-91.5350000000002
 20
-2.359907585186192
 30
0.0
 40
2.042364937131917
100
AcDbArc
 50
64.43846940472724
 51
124.4384694047219
  0
ARC
  5
7AE9
330
1F
100
AcDbEntity
  8
0
100
AcDbCircle
 10
-98.46500000000004
 20
-2.359907585186192
 30
0.0
 40
2.042364937131906
100
AcDbArc
 50
55.56153059527809
 51
115.5615305952727
  0
LINE
  5
7AEA
330
1F
100
AcDbEntity
  8
0
100
AcDbLine
 10
-99.62000000000001
 20
-0.6754998149517633
 30
0.0
 11
-98.45000000000016
 21
0.0
 31
0.0
  0
LINE
  5
7AEB
330
1F
100
AcDbEntity
  8
0
100
AcDbLine
 10
-90.38
 20
-0.6754998149517633
 30
0.0
 11
-91.55000000000006
 21
0.0
 31
0.0
  0
LINE
  5
7AEC
330
1F
100
AcDbEntity
  8
0
100
AcDbLine
 10
-98.45000000000016
 20
0.0
 30
0.0
 11
-91.55000000000006
 21
0.0
 31
0.0
  0
ARC
  5
7AED
330
1F
100
AcDbEntity
  8
0
100
AcDbCircle
 10
-95.00000000000012
 20
3.632523998181113
 30
0.0
 40
7.632523998181309
100
AcDbArc
 50
252.3830311596088
 51
287.6169688403911
  0
ARC
  5
7AEE
330
1F
100
AcDbEntity
  8
0
100
AcDbCircle
 10
-91.5350000000002
 20
-1.957635062868121
 30
0.0
 40
2.042364937131917
100
AcDbArc
 50
235.5615305952781
 51
295.5615305952727
  0
ARC
  5
7AEF
330
1F
100
AcDbEntity
  8
0
100
AcDbCircle
 10
-98.46500000000004
 20
-1.957635062868121
 30
0.0
 40
2.042364937131917
100
AcDbArc
 50
244.4384694047272
 51
304.4384694047219
  0
ARC
  5
7AF0
330
1F
100
AcDbEntity
  8
0
100
AcDbCircle
 10
-95.00000000000012
 20
-6.25
 30
0.0
 40
3.75
100
AcDbArc
 50
180.0
 51
0.0
  0
LINE
  5
7AF1
330
1F
100
AcDbEntity
  8
0
100
AcDbLine
 10
-98.75000000000012
 20
-4.0
 30
0.0
 11
-91.25000000000012
 21
-4.0
 31
0.0
  0
LINE
  5
7AF2
330
1F
100
AcDbEntity
  8
0
100
AcDbLine
 10
-91.25000000000012
 20
-4.0
 30
0.0
 11
-91.00000000000012
 21
-4.0
 31
0.0
  0
LINE
  5
7AF3
330
1F
100
AcDbEntity
  8
0
100
AcDbLine
 10
-91.25000000000012
 20
-6.25
 30
0.0
 11
-91.25000000000012
 21
-4.0
 31
0.0
  0
LINE
  5
7AF4
330
1F
100
AcDbEntity
  8
0
100
AcDbLine
 10
-98.75000000000012
 20
-6.25
 30
0.0
 11
-98.75000000000012
 21
-4.0
 31
0.0
  0
LINE
  5
7AF5
330
1F
100
AcDbEntity
  8
0
100
AcDbLine
 10
-99.62000000000001
 20
-3.64204283310255
 30
0.0
 11
-99.00000000000012
 21
-4.0
 31
0.0
  0
LINE
  5
7AF6
330
1F
100
AcDbEntity
  8
0
100
AcDbLine
 10
-90.38
 20
-3.64204283310255
 30
0.0
 11
-91.00000000000012
 21
-4.0
 31
0.0
  0
LINE
  5
7AF7
330
1F
100
AcDbEntity
  8
0
100
AcDbLine
 10
-99.00000000000012
 20
-4.0
 30
0.0
 11
-98.75000000000012
 21
-4.0
 31
0.0
  0
LINE
  5
7AFB
330
1F
100
AcDbEntity
  8
0
100
AcDbLine
 10
87.31000000000017
 20
1408.675499814951
 30
0.0
 11
87.31000000000017
 21
1411.642042833102
 31
0.0
  0
LINE
  5
7AFC
330
1F
100
AcDbEntity
  8
0
100
AcDbLine
 10
89.62000000000035
 20
1408.675499814951
 30
0.0
 11
89.62000000000035
 21
1411.642042833102
 31
0.0
  0
LINE
  5
7AFD
330
1F
100
AcDbEntity
  8
0
100
AcDbLine
 10
82.69000000000028
 20
1408.675499814951
 30
0.0
 11
82.69000000000028
 21
1411.642042833102
 31
0.0
  0
LINE
  5
7AFE
330
1F
100
AcDbEntity
  8
0
100
AcDbLine
 10
80.38000000000034
 20
1408.675499814951
 30
0.0
 11
80.38000000000034
 21
1411.642042833102
 31
0.0
  0
ARC
  5
7AFF
330
1F
100
AcDbEntity
  8
0
100
AcDbCircle
 10
85.00000000000023
 20
1415.950066646235
 30
0.0
 40
7.63252399818127
100
AcDbArc
 50
252.3830311596232
 51
287.6169688403911
  0
ARC
  5
7B00
330
1F
100
AcDbEntity
  8
0
100
AcDbCircle
 10
81.53500000000031
 20
1410.359907585186
 30
0.0
 40
2.042364937131917
100
AcDbArc
 50
244.4384694047272
 51
304.4384694047219
  0
ARC
  5
7B01
330
1F
100
AcDbEntity
  8
0
100
AcDbCircle
 10
88.46500000000037
 20
1410.359907585186
 30
0.0
 40
2.042364937131906
100
AcDbArc
 50
235.5615305952781
 51
295.5615305952727
  0
LINE
  5
7B02
330
1F
100
AcDbEntity
  8
0
100
AcDbLine
 10
89.62000000000035
 20
1408.675499814951
 30
0.0
 11
88.45000000000027
 21
1408.0
 31
0.0
  0
LINE
  5
7B03
330
1F
100
AcDbEntity
  8
0
100
AcDbLine
 10
80.38000000000034
 20
1408.675499814951
 30
0.0
 11
81.55000000000041
 21
1408.0
 31
0.0
  0
LINE
  5
7B04
330
1F
100
AcDbEntity
  8
0
100
AcDbLine
 10
88.45000000000027
 20
1408.0
 30
0.0
 11
81.55000000000041
 21
1408.0
 31
0.0
  0
ARC
  5
7B05
330
1F
100
AcDbEntity
  8
0
100
AcDbCircle
 10
85.00000000000023
 20
1404.367476001818
 30
0.0
 40
7.632523998181309
100
AcDbArc
 50
72.38303115962323
 51
107.6169688403768
  0
ARC
  5
7B06
330
1F
100
AcDbEntity
  8
0
100
AcDbCircle
 10
81.53500000000031
 20
1409.957635062868
 30
0.0
 40
2.042364937131917
100
AcDbArc
 50
55.56153059527809
 51
115.5615305952727
  0
ARC
  5
7B07
330
1F
100
AcDbEntity
  8
0
100
AcDbCircle
 10
88.46500000000037
 20
1409.957635062868
 30
0.0
 40
2.042364937131917
100
AcDbArc
 50
64.43846940472724
 51
124.4384694047219
  0
ARC
  5
7B08
330
1F
100
AcDbEntity
  8
0
100
AcDbCircle
 10
85.00000000000023
 20
1414.25
 30
0.0
 40
3.75
100
AcDbArc
 50
0.0
 51
180.0
  0
LINE
  5
7B09
330
1F
100
AcDbEntity
  8
0
100
AcDbLine
 10
88.75000000000023
 20
1412.0
 30
0.0
 11
81.25000000000023
 21
1412.0
 31
0.0
  0
LINE
  5
7B0A
330
1F
100
AcDbEntity
  8
0
100
AcDbLine
 10
81.25000000000023
 20
1412.0
 30
0.0
 11
81.00000000000022
 21
1412.0
 31
0.0
  0
LINE
  5
7B0B
330
1F
100
AcDbEntity
  8
0
100
AcDbLine
 10
81.25000000000023
 20
1414.25
 30
0.0
 11
81.25000000000023
 21
1412.0
 31
0.0
  0
LINE
  5
7B0C
330
1F
100
AcDbEntity
  8
0
100
AcDbLine
 10
88.75000000000023
 20
1414.25
 30
0.0
 11
88.75000000000023
 21
1412.0
 31
0.0
  0
LINE
  5
7B0D
330
1F
100
AcDbEntity
  8
0
100
AcDbLine
 10
89.62000000000035
 20
1411.642042833102
 30
0.0
 11
89.00000000000023
 21
1412.0
 31
0.0
  0
LINE
  5
7B0E
330
1F
100
AcDbEntity
  8
0
100
AcDbLine
 10
80.38000000000034
 20
1411.642042833102
 30
0.0
 11
81.00000000000022
 21
1412.0
 31
0.0
  0
LINE
  5
7B0F
330
1F
100
AcDbEntity
  8
0
100
AcDbLine
 10
89.00000000000023
 20
1412.0
 30
0.0
 11
88.75000000000023
 21
1412.0
 31
0.0
  0
LINE
  5
7B10
330
1F
100
AcDbEntity
  8
0
100
AcDbLine
 10
97.31000000000006
 20
-0.6754998149517633
 30
0.0
 11
97.31000000000006
 21
-3.64204283310255
 31
0.0
  0
LINE
  5
7B11
330
1F
100
AcDbEntity
  8
0
100
AcDbLine
 10
99.62000000000001
 20
-0.6754998149517633
 30
0.0
 11
99.62000000000001
 21
-3.64204283310255
 31
0.0
  0
LINE
  5
7B12
330
1F
100
AcDbEntity
  8
0
100
AcDbLine
 10
92.68999999999994
 20
-0.6754998149517633
 30
0.0
 11
92.68999999999994
 21
-3.64204283310255
 31
0.0
  0
LINE
  5
7B13
330
1F
100
AcDbEntity
  8
0
100
AcDbLine
 10
90.38
 20
-0.6754998149517633
 30
0.0
 11
90.38
 21
-3.64204283310255
 31
0.0
  0
ARC
  5
7B14
330
1F
100
AcDbEntity
  8
0
100
AcDbCircle
 10
95.00000000000012
 20
-7.950066646235427
 30
0.0
 40
7.63252399818127
100
AcDbArc
 50
72.38303115960883
 51
107.6169688403912
  0
ARC
  5
7B15
330
1F
100
AcDbEntity
  8
0
100
AcDbCircle
 10
91.53499999999997
 20
-2.359907585186192
 30
0.0
 40
2.042364937131917
100
AcDbArc
 50
55.56153059527809
 51
115.5615305952727
  0
ARC
  5
7B16
330
1F
100
AcDbEntity
  8
0
100
AcDbCircle
 10
98.46500000000004
 20
-2.359907585186192
 30
0.0
 40
2.042364937131906
100
AcDbArc
 50
64.43846940472724
 51
124.4384694047219
  0
LINE
  5
7B17
330
1F
100
AcDbEntity
  8
0
100
AcDbLine
 10
99.62000000000001
 20
-0.6754998149517633
 30
0.0
 11
98.44999999999993
 21
0.0
 31
0.0
  0
LINE
  5
7B18
330
1F
100
AcDbEntity
  8
0
100
AcDbLine
 10
90.38
 20
-0.6754998149517633
 30
0.0
 11
91.54999999999985
 21
0.0
 31
0.0
  0
LINE
  5
7B19
330
1F
100
AcDbEntity
  8
0
100
AcDbLine
 10
98.44999999999993
 20
0.0
 30
0.0
 11
91.54999999999985
 21
0.0
 31
0.0
  0
ARC
  5
7B1A
330
1F
100
AcDbEntity
  8
0
100
AcDbCircle
 10
95.00000000000012
 20
3.632523998181113
 30
0.0
 40
7.632523998181309
100
AcDbArc
 50
252.3830311596088
 51
287.6169688403911
  0
ARC
  5
7B1B
330
1F
100
AcDbEntity
  8
0
100
AcDbCircle
 10
91.53499999999997
 20
-1.957635062868121
 30
0.0
 40
2.042364937131917
100
AcDbArc
 50
244.4384694047272
 51
304.4384694047219
  0
ARC
  5
7B1C
330
1F
100
AcDbEntity
  8
0
100
AcDbCircle
 10
98.46500000000004
 20
-1.957635062868121
 30
0.0
 40
2.042364937131917
100
AcDbArc
 50
235.5615305952781
 51
295.5615305952727
  0
ARC
  5
7B1D
330
1F
100
AcDbEntity
  8
0
100
AcDbCircle
 10
95.00000000000012
 20
-6.25
 30
0.0
 40
3.75
100
AcDbArc
 50
180.0
 51
0.0
  0
LINE
  5
7B1E
330
1F
100
AcDbEntity
  8
0
100
AcDbLine
 10
98.75000000000012
 20
-4.0
 30
0.0
 11
91.25000000000012
 21
-4.0
 31
0.0
  0
LINE
  5
7B1F
330
1F
100
AcDbEntity
  8
0
100
AcDbLine
 10
91.25000000000012
 20
-4.0
 30
0.0
 11
91.00000000000012
 21
-4.0
 31
0.0
  0
LINE
  5
7B20
330
1F
100
AcDbEntity
  8
0
100
AcDbLine
 10
91.25000000000012
 20
-6.25
 30
0.0
 11
91.25000000000012
 21
-4.0
 31
0.0
  0
LINE
  5
7B21
330
1F
100
AcDbEntity
  8
0
100
AcDbLine
 10
98.75000000000012
 20
-6.25
 30
0.0
 11
98.75000000000012
 21
-4.0
 31
0.0
  0
LINE
  5
7B22
330
1F
100
AcDbEntity
  8
0
100
AcDbLine
 10
99.62000000000001
 20
-3.64204283310255
 30
0.0
 11
99.00000000000012
 21
-4.0
 31
0.0
  0
LINE
  5
7B23
330
1F
100
AcDbEntity
  8
0
100
AcDbLine
 10
90.38
 20
-3.64204283310255
 30
0.0
 11
91.00000000000012
 21
-4.0
 31
0.0
  0
LINE
  5
7B24
330
1F
100
AcDbEntity
  8
0
100
AcDbLine
 10
99.00000000000012
 20
-4.0
 30
0.0
 11
98.75000000000012
 21
-4.0
 31
0.0
  0
LWPOLYLINE
  5
7B27
330
1F
100
AcDbEntity
  8
0
100
AcDbPolyline
 90
        4
 70
     1
 43
0.0
 10
-17.49999999999977
 20
1408.0
 10
17.50000000000023
 20
1408.0
 10
17.50000000000023
 20
1448.0
 10
-17.49999999999977
 20
1448.0
1001
GENIUS_GENREC_14
1002
{
1000
PYDIR
1011
-17.49999999999977
1021
1448.0
1031
0.0
1002
}
1002
{
1000
PXDIR
1011
17.50000000000023
1021
1408.0
1031
0.0
1002
}
1002
{
1000
PORI
1011
-17.49999999999977
1021
1408.0
1031
0.0
1002
}
1002
{
1000
PINS
1011
-17.49999999999977
1021
1408.0
1031
0.0
1002
}
1002
{
1000
PINS2
1011
17.50000000000023
1021
1448.0
1031
0.0
1002
}
1002
{
1000
C
1070
     1
1002
}
1001
GENIUS_GENOBJ-N-REC_13
1002
{
1000
OWNER
1000
GEN
1002
}
1001
GENIUS_GENODEF_13
1002
{
1000
HIER
1070
     0
1002
}
1002
{
1000
MANEDIT
1070
     0
1002
}
1002
{
1000
NOSEL
1070
     0
1002
}
1002
{
1000
BEHIND
1070
     0
1002
}
1002
{
1000
OTHER
1070
     0
1002
}
1002
{
1000
REACTOR
1002
}
  0
LWPOLYLINE
  5
7B28
330
1F
100
AcDbEntity
  8
0
100
AcDbPolyline
 90
        6
 70
     0
 43
0.0
 10
20.00000000000023
 20
1480.5
 10
20.00000000000023
 20
1488.0
 10
-19.99999999999977
 20
1488.0
 10
-19.99999999999977
 20
1448.0
 10
20.00000000000023
 20
1448.0
 10
20.00000000000023
 20
1455.5
1001
GENIUS_GENREC_14
1002
{
1000
PYDIR
1011
-19.99999999999977
1021
1488.0
1031
0.0
1002
}
1002
{
1000
PXDIR
1011
20.00000000000023
1021
1448.0
1031
0.0
1002
}
1002
{
1000
PORI
1011
-19.99999999999977
1021
1448.0
1031
0.0
1002
}
1002
{
1000
PINS
1011
-19.99999999999977
1021
1448.0
1031
0.0
1002
}
1002
{
1000
PINS2
1011
20.00000000000023
1021
1488.0
1031
0.0
1002
}
1002
{
1000
C
1070
     1
1002
}
1001
GENIUS_GENOBJ-N-REC_13
1002
{
1000
OWNER
1000
GEN
1002
}
1001
GENIUS_GENODEF_13
1002
{
1000
HIER
1070
     0
1002
}
1002
{
1000
MANEDIT
1070
     0
1002
}
1002
{
1000
NOSEL
1070
     0
1002
}
1002
{
1000
BEHIND
1070
     0
1002
}
1002
{
1000
OTHER
1070
     0
1002
}
1002
{
1000
REACTOR
1002
}
  0
LWPOLYLINE
  5
7B29
330
1F
100
AcDbEntity
  8
0
100
AcDbPolyline
 90
        4
 70
     1
 43
0.0
 10
25.00000000000023
 20
1453.0
 10
57.50000000000023
 20
1453.0
 10
57.50000000000023
 20
1483.0
 10
25.00000000000023
 20
1483.0
1001
GENIUS_GENREC_14
1002
{
1000
PYDIR
1011
25.00000000000023
1021
1483.0
1031
0.0
1002
}
1002
{
1000
PXDIR
1011
57.50000000000023
1021
1453.0
1031
0.0
1002
}
1002
{
1000
PORI
1011
25.00000000000023
1021
1453.0
1031
0.0
1002
}
1002
{
1000
PINS
1011
25.00000000000023
1021
1453.0
1031
0.0
1002
}
1002
{
1000
PINS2
1011
57.50000000000023
1021
1483.0
1031
0.0
1002
}
1002
{
1000
C
1070
     1
1002
}
1001
GENIUS_GENOBJ-N-REC_13
1002
{
1000
OWNER
1000
GEN
1002
}
1001
GENIUS_GENODEF_13
1002
{
1000
HIER
1070
     0
1002
}
1002
{
1000
MANEDIT
1070
     0
1002
}
1002
{
1000
NOSEL
1070
     0
1002
}
1002
{
1000
BEHIND
1070
     0
1002
}
1002
{
1000
OTHER
1070
     0
1002
}
1002
{
1000
REACTOR
1002
}
  0
LINE
  5
7B2A
330
1F
100
AcDbEntity
  8
0
100
AcDbLine
 10
25.00000000000023
 20
1480.5
 30
0.0
 11
-2.499999999999772
 21
1480.5
 31
0.0
  0
LINE
  5
7B2B
330
1F
100
AcDbEntity
  8
0
100
AcDbLine
 10
25.00000000000023
 20
1455.5
 30
0.0
 11
-2.499999999999772
 21
1455.5
 31
0.0
  0
LWPOLYLINE
  5
7B51
330
1F
100
AcDbEntity
  8
0
100
AcDbPolyline
 90
        4
 70
     1
 43
0.0
 10
221.5000000000002
 20
692.9999999999998
 10
147.5000000000002
 20
692.9999999999998
 10
147.5000000000002
 20
552.9999999999999
 10
221.5000000000002
 20
552.9999999999999
1001
GENIUS_GENREC_14
1002
{
1000
PYDIR
1011
221.5000000000002
1021
552.9999999999999
1031
0.0
1002
}
1002
{
1000
PXDIR
1011
147.5000000000002
1021
692.9999999999998
1031
0.0
1002
}
1002
{
1000
PORI
1011
221.5000000000002
1021
692.9999999999998
1031
0.0
1002
}
1002
{
1000
PINS
1011
221.5000000000002
1021
692.9999999999998
1031
0.0
1002
}
1002
{
1000
PINS2
1011
147.5000000000002
1021
552.9999999999999
1031
0.0
1002
}
1002
{
1000
C
1070
     1
1002
}
1001
GENIUS_GENOBJ-N-REC_13
1002
{
1000
OWNER
1000
GEN
1002
}
1001
GENIUS_GENODEF_13
1002
{
1000
HIER
1070
     0
1002
}
1002
{
1000
MANEDIT
1070
     0
1002
}
1002
{
1000
NOSEL
1070
     0
1002
}
1002
{
1000
BEHIND
1070
     0
1002
}
1002
{
1000
OTHER
1070
     0
1002
}
1002
{
1000
REACTOR
1002
}
  0
LWPOLYLINE
  5
7B61
330
1F
100
AcDbEntity
  8
0
100
AcDbPolyline
 90
        4
 70
     1
 43
0.0
 10
-147.4999999999997
 20
917.9999999999999
 10
-221.4999999999998
 20
917.9999999999999
 10
-221.4999999999998
 20
777.9999999999999
 10
-147.4999999999997
 20
777.9999999999999
1001
GENIUS_GENREC_14
1002
{
1000
PYDIR
1011
-147.4999999999997
1021
777.9999999999999
1031
0.0
1002
}
1002
{
1000
PXDIR
1011
-221.4999999999998
1021
917.9999999999999
1031
0.0
1002
}
1002
{
1000
PORI
1011
-147.4999999999997
1021
917.9999999999999
1031
0.0
1002
}
1002
{
1000
PINS
1011
-147.4999999999997
1021
917.9999999999999
1031
0.0
1002
}
1002
{
1000
PINS2
1011
-221.4999999999998
1021
777.9999999999999
1031
0.0
1002
}
1002
{
1000
C
1070
     1
1002
}
1001
GENIUS_GENOBJ-N-REC_13
1002
{
1000
OWNER
1000
GEN
1002
}
1001
GENIUS_GENODEF_13
1002
{
1000
HIER
1070
     0
1002
}
1002
{
1000
MANEDIT
1070
     0
1002
}
1002
{
1000
NOSEL
1070
     0
1002
}
1002
{
1000
BEHIND
1070
     0
1002
}
1002
{
1000
OTHER
1070
     0
1002
}
1002
{
1000
REACTOR
1002
}
  0
LWPOLYLINE
  5
7B62
330
1F
100
AcDbEntity
  8
0
100
AcDbPolyline
 90
        4
 70
     1
 43
0.0
 10
-147.4999999999997
 20
468.0000000000001
 10
-221.4999999999998
 20
468.0000000000001
 10
-221.4999999999999
 20
328.0000000000001
 10
-147.4999999999999
 20
328.0000000000001
1001
GENIUS_GENREC_14
1002
{
1000
PYDIR
1011
-147.4999999999999
1021
328.0000000000001
1031
0.0
1002
}
1002
{
1000
PXDIR
1011
-221.4999999999998
1021
468.0000000000001
1031
0.0
1002
}
1002
{
1000
PORI
1011
-147.4999999999997
1021
468.0000000000001
1031
0.0
1002
}
1002
{
1000
PINS
1011
-147.4999999999997
1021
468.0000000000001
1031
0.0
1002
}
1002
{
1000
PINS2
1011
-221.4999999999999
1021
328.0000000000001
1031
0.0
1002
}
1002
{
1000
C
1070
     1
1002
}
1001
GENIUS_GENOBJ-N-REC_13
1002
{
1000
OWNER
1000
GEN
1002
}
1001
GENIUS_GENODEF_13
1002
{
1000
HIER
1070
     0
1002
}
1002
{
1000
MANEDIT
1070
     0
1002
}
1002
{
1000
NOSEL
1070
     0
1002
}
1002
{
1000
BEHIND
1070
     0
1002
}
1002
{
1000
OTHER
1070
     0
1002
}
1002
{
1000
REACTOR
1002
}
  0
LWPOLYLINE
  5
7B63
330
1F
100
AcDbEntity
  8
0
100
AcDbPolyline
 90
        4
 70
     1
 43
0.0
 10
221.5
 20
242.9999999999999
 10
147.5000000000001
 20
242.9999999999999
 10
147.5000000000001
 20
102.9999999999999
 10
221.5
 20
102.9999999999999
1001
GENIUS_GENREC_14
1002
{
1000
PYDIR
1011
221.5
1021
102.9999999999999
1031
0.0
1002
}
1002
{
1000
PXDIR
1011
147.5000000000001
1021
242.9999999999999
1031
0.0
1002
}
1002
{
1000
PORI
1011
221.5
1021
242.9999999999999
1031
0.0
1002
}
1002
{
1000
PINS
1011
221.5
1021
242.9999999999999
1031
0.0
1002
}
1002
{
1000
PINS2
1011
147.5000000000001
1021
102.9999999999999
1031
0.0
1002
}
1002
{
1000
C
1070
     1
1002
}
1001
GENIUS_GENOBJ-N-REC_13
1002
{
1000
OWNER
1000
GEN
1002
}
1001
GENIUS_GENODEF_13
1002
{
1000
HIER
1070
     0
1002
}
1002
{
1000
MANEDIT
1070
     0
1002
}
1002
{
1000
NOSEL
1070
     0
1002
}
1002
{
1000
BEHIND
1070
     0
1002
}
1002
{
1000
OTHER
1070
     0
1002
}
1002
{
1000
REACTOR
1002
}
  0
LWPOLYLINE
  5
7B6E
330
1F
100
AcDbEntity
  8
0
100
AcDbPolyline
 90
        4
 70
     1
 43
0.0
 10
147.5000000000002
 20
702.9999999999999
 10
97.50000000000023
 20
702.9999999999999
 10
97.50000000000023
 20
542.9999999999998
 10
147.5000000000002
 20
542.9999999999998
1001
GENIUS_GENREC_14
1002
{
1000
PYDIR
1011
147.5000000000002
1021
542.9999999999998
1031
0.0
1002
}
1002
{
1000
PXDIR
1011
97.50000000000023
1021
702.9999999999999
1031
0.0
1002
}
1002
{
1000
PORI
1011
147.5000000000002
1021
702.9999999999999
1031
0.0
1002
}
1002
{
1000
PINS
1011
147.5000000000002
1021
702.9999999999999
1031
0.0
1002
}
1002
{
1000
PINS2
1011
97.50000000000023
1021
542.9999999999998
1031
0.0
1002
}
1002
{
1000
C
1070
     1
1002
}
1001
GENIUS_GENOBJ-N-REC_13
1002
{
1000
OWNER
1000
GEN
1002
}
1001
GENIUS_GENODEF_13
1002
{
1000
HIER
1070
     0
1002
}
1002
{
1000
MANEDIT
1070
     0
1002
}
1002
{
1000
NOSEL
1070
     0
1002
}
1002
{
1000
BEHIND
1070
     0
1002
}
1002
{
1000
OTHER
1070
     0
1002
}
1002
{
1000
REACTOR
1002
}
  0
LWPOLYLINE
  5
7B6F
330
1F
100
AcDbEntity
  8
0
100
AcDbPolyline
 90
        4
 70
     1
 43
0.0
 10
147.5000000000001
 20
252.9999999999999
 10
97.50000000000012
 20
252.9999999999999
 10
97.50000000000012
 20
92.99999999999988
 10
147.5000000000001
 20
92.99999999999988
1001
GENIUS_GENREC_14
1002
{
1000
PYDIR
1011
147.5000000000001
1021
92.99999999999988
1031
0.0
1002
}
1002
{
1000
PXDIR
1011
97.50000000000012
1021
252.9999999999999
1031
0.0
1002
}
1002
{
1000
PORI
1011
147.5000000000001
1021
252.9999999999999
1031
0.0
1002
}
1002
{
1000
PINS
1011
147.5000000000001
1021
252.9999999999999
1031
0.0
1002
}
1002
{
1000
PINS2
1011
97.50000000000012
1021
92.99999999999988
1031
0.0
1002
}
1002
{
1000
C
1070
     1
1002
}
1001
GENIUS_GENOBJ-N-REC_13
1002
{
1000
OWNER
1000
GEN
1002
}
1001
GENIUS_GENODEF_13
1002
{
1000
HIER
1070
     0
1002
}
1002
{
1000
MANEDIT
1070
     0
1002
}
1002
{
1000
NOSEL
1070
     0
1002
}
1002
{
1000
BEHIND
1070
     0
1002
}
1002
{
1000
OTHER
1070
     0
1002
}
1002
{
1000
REACTOR
1002
}
  0
LWPOLYLINE
  5
7B70
330
1F
100
AcDbEntity
  8
0
100
AcDbPolyline
 90
        4
 70
     1
 43
0.0
 10
-97.49999999999978
 20
483.9999999999998
 10
-147.4999999999997
 20
484.0000000000001
 10
-147.4999999999999
 20
312.0000000000001
 10
-97.49999999999989
 20
311.9999999999999
1001
GENIUS_GENREC_14
1002
{
1000
PYDIR
1011
-97.49999999999989
1021
311.9999999999999
1031
0.0
1002
}
1002
{
1000
PXDIR
1011
-147.4999999999997
1021
484.0000000000001
1031
0.0
1002
}
1002
{
1000
PORI
1011
-97.49999999999978
1021
483.9999999999998
1031
0.0
1002
}
1002
{
1000
PINS
1011
-97.49999999999978
1021
483.9999999999998
1031
0.0
1002
}
1002
{
1000
PINS2
1011
-147.4999999999999
1021
312.0000000000001
1031
0.0
1002
}
1002
{
1000
C
1070
     1
1002
}
1001
GENIUS_GENOBJ-N-REC_13
1002
{
1000
OWNER
1000
GEN
1002
}
1001
GENIUS_GENODEF_13
1002
{
1000
HIER
1070
     0
1002
}
1002
{
1000
MANEDIT
1070
     0
1002
}
1002
{
1000
NOSEL
1070
     0
1002
}
1002
{
1000
BEHIND
1070
     0
1002
}
1002
{
1000
OTHER
1070
     0
1002
}
1002
{
1000
REACTOR
1002
}
  0
LWPOLYLINE
  5
7B71
330
1F
100
AcDbEntity
  8
0
100
AcDbPolyline
 90
        4
 70
     1
 43
0.0
 10
-97.49999999999978
 20
927.9999999999999
 10
-147.4999999999997
 20
927.9999999999999
 10
-147.4999999999997
 20
767.9999999999998
 10
-97.49999999999978
 20
767.9999999999998
1001
GENIUS_GENREC_14
1002
{
1000
PYDIR
1011
-97.49999999999978
1021
767.9999999999998
1031
0.0
1002
}
1002
{
1000
PXDIR
1011
-147.4999999999997
1021
927.9999999999999
1031
0.0
1002
}
1002
{
1000
PORI
1011
-97.49999999999978
1021
927.9999999999999
1031
0.0
1002
}
1002
{
1000
PINS
1011
-97.49999999999978
1021
927.9999999999999
1031
0.0
1002
}
1002
{
1000
PINS2
1011
-147.4999999999997
1021
767.9999999999998
1031
0.0
1002
}
1002
{
1000
C
1070
     1
1002
}
1001
GENIUS_GENOBJ-N-REC_13
1002
{
1000
OWNER
1000
GEN
1002
}
1001
GENIUS_GENODEF_13
1002
{
1000
HIER
1070
     0
1002
}
1002
{
1000
MANEDIT
1070
     0
1002
}
1002
{
1000
NOSEL
1070
     0
1002
}
1002
{
1000
BEHIND
1070
     0
1002
}
1002
{
1000
OTHER
1070
     0
1002
}
1002
{
1000
REACTOR
1002
}
  0
LWPOLYLINE
  5
8079
330
1F
100
AcDbEntity
  8
0
100
AcDbPolyline
 90
        4
 70
     1
 43
0.0
 10
-104.9999999999998
 20
992.9999999999999
 10
105.0000000000002
 20
992.9999999999999
 10
105.0000000000002
 20
977.9999999999999
 10
-104.9999999999998
 20
977.9999999999999
1001
GENIUS_GENREC_14
1002
{
1000
PYDIR
1011
-104.9999999999998
1021
977.9999999999999
1031
0.0
1002
}
1002
{
1000
PXDIR
1011
105.0000000000002
1021
992.9999999999999
1031
0.0
1002
}
1002
{
1000
PORI
1011
-104.9999999999998
1021
992.9999999999999
1031
0.0
1002
}
1002
{
1000
PINS
1011
-104.9999999999998
1021
992.9999999999999
1031
0.0
1002
}
1002
{
1000
PINS2
1011
105.0000000000002
1021
977.9999999999999
1031
0.0
1002
}
1002
{
1000
C
1070
     1
1002
}
1001
GENIUS_GENOBJ-N-REC_13
1002
{
1000
OWNER
1000
GEN
1002
}
1001
GENIUS_GENODEF_13
1002
{
1000
HIER
1070
     0
1002
}
1002
{
1000
MANEDIT
1070
     0
1002
}
1002
{
1000
NOSEL
1070
     0
1002
}
1002
{
1000
BEHIND
1070
     0
1002
}
1002
{
1000
OTHER
1070
     0
1002
}
1002
{
1000
REACTOR
1002
}
  0
LINE
  5
807C
330
1F
100
AcDbEntity
  8
0
100
AcDbLine
 10
-87.30999999999971
 20
977.3245001850481
 30
0.0
 11
-87.30999999999971
 21
974.3579571668977
 31
0.0
  0
LINE
  5
807D
330
1F
100
AcDbEntity
  8
0
100
AcDbLine
 10
-89.61999999999965
 20
977.3245001850481
 30
0.0
 11
-89.61999999999965
 21
974.3579571668977
 31
0.0
  0
LINE
  5
807E
330
1F
100
AcDbEntity
  8
0
100
AcDbLine
 10
-82.68999999999961
 20
977.3245001850481
 30
0.0
 11
-82.68999999999961
 21
974.3579571668977
 31
0.0
  0
LINE
  5
807F
330
1F
100
AcDbEntity
  8
0
100
AcDbLine
 10
-80.37999999999966
 20
977.3245001850481
 30
0.0
 11
-80.37999999999966
 21
974.3579571668977
 31
0.0
  0
ARC
  5
8080
330
1F
100
AcDbEntity
  8
0
100
AcDbCircle
 10
-84.99999999999976
 20
970.0499333537644
 30
0.0
 40
7.63252399818127
100
AcDbArc
 50
72.38303115960883
 51
107.6169688403912
  0
ARC
  5
8081
330
1F
100
AcDbEntity
  8
0
100
AcDbCircle
 10
-81.53499999999963
 20
975.6400924148136
 30
0.0
 40
2.042364937131917
100
AcDbArc
 50
64.43846940472724
 51
124.4384694047155
  0
ARC
  5
8082
330
1F
100
AcDbEntity
  8
0
100
AcDbCircle
 10
-88.46499999999968
 20
975.6400924148136
 30
0.0
 40
2.042364937131906
100
AcDbArc
 50
55.56153059528447
 51
115.5615305952727
  0
LINE
  5
8083
330
1F
100
AcDbEntity
  8
0
100
AcDbLine
 10
-89.61999999999965
 20
977.3245001850481
 30
0.0
 11
-88.44999999999959
 21
977.9999999999999
 31
0.0
  0
LINE
  5
8084
330
1F
100
AcDbEntity
  8
0
100
AcDbLine
 10
-80.37999999999966
 20
977.3245001850481
 30
0.0
 11
-81.54999999999972
 21
977.9999999999999
 31
0.0
  0
LINE
  5
8085
330
1F
100
AcDbEntity
  8
0
100
AcDbLine
 10
-88.44999999999959
 20
977.9999999999999
 30
0.0
 11
-81.54999999999972
 21
977.9999999999999
 31
0.0
  0
ARC
  5
8086
330
1F
100
AcDbEntity
  8
0
100
AcDbCircle
 10
-84.99999999999976
 20
981.6325239981814
 30
0.0
 40
7.632523998181309
100
AcDbArc
 50
252.3830311596088
 51
287.6169688403911
  0
ARC
  5
8087
330
1F
100
AcDbEntity
  8
0
100
AcDbCircle
 10
-81.53499999999963
 20
976.0423649371313
 30
0.0
 40
2.042364937131917
100
AcDbArc
 50
235.5615305952845
 51
295.5615305952727
  0
ARC
  5
8088
330
1F
100
AcDbEntity
  8
0
100
AcDbCircle
 10
-88.46499999999968
 20
976.0423649371313
 30
0.0
 40
2.042364937131917
100
AcDbArc
 50
244.4384694047272
 51
304.4384694047155
  0
ARC
  5
8089
330
1F
100
AcDbEntity
  8
0
100
AcDbCircle
 10
-84.99999999999976
 20
971.7499999999999
 30
0.0
 40
3.75
100
AcDbArc
 50
180.0
 51
0.0
  0
LINE
  5
808A
330
1F
100
AcDbEntity
  8
0
100
AcDbLine
 10
-88.74999999999976
 20
973.9999999999998
 30
0.0
 11
-81.24999999999976
 21
973.9999999999998
 31
0.0
  0
LINE
  5
808B
330
1F
100
AcDbEntity
  8
0
100
AcDbLine
 10
-81.24999999999976
 20
973.9999999999998
 30
0.0
 11
-80.99999999999978
 21
973.9999999999998
 31
0.0
  0
LINE
  5
808C
330
1F
100
AcDbEntity
  8
0
100
AcDbLine
 10
-81.24999999999976
 20
971.7499999999999
 30
0.0
 11
-81.24999999999976
 21
973.9999999999998
 31
0.0
  0
LINE
  5
808D
330
1F
100
AcDbEntity
  8
0
100
AcDbLine
 10
-88.74999999999976
 20
971.7499999999999
 30
0.0
 11
-88.74999999999976
 21
973.9999999999998
 31
0.0
  0
LINE
  5
808E
330
1F
100
AcDbEntity
  8
0
100
AcDbLine
 10
-89.61999999999965
 20
974.3579571668977
 30
0.0
 11
-88.99999999999977
 21
973.9999999999998
 31
0.0
  0
LINE
  5
808F
330
1F
100
AcDbEntity
  8
0
100
AcDbLine
 10
-80.37999999999966
 20
974.3579571668977
 30
0.0
 11
-80.99999999999978
 21
973.9999999999998
 31
0.0
  0
LINE
  5
8090
330
1F
100
AcDbEntity
  8
0
100
AcDbLine
 10
-88.99999999999977
 20
973.9999999999998
 30
0.0
 11
-88.74999999999976
 21
973.9999999999998
 31
0.0
  0
LINE
  5
8091
330
1F
100
AcDbEntity
  8
0
100
AcDbLine
 10
92.50000000000023
 20
977.9999999999999
 30
0.0
 11
92.50000000000012
 21
15.0
 31
0.0
  0
LINE
  5
8092
330
1F
100
AcDbEntity
  8
0
100
AcDbLine
 10
97.50000000000023
 20
977.9999999999999
 30
0.0
 11
97.50000000000012
 21
15.0
 31
0.0
  0
LINE
  5
8093
330
1F
100
AcDbEntity
  8
0
100
AcDbLine
 10
97.31000000000017
 20
993.6754998149517
 30
0.0
 11
97.31000000000017
 21
996.6420428331019
 31
0.0
  0
LINE
  5
8094
330
1F
100
AcDbEntity
  8
0
100
AcDbLine
 10
99.62000000000035
 20
993.6754998149517
 30
0.0
 11
99.62000000000035
 21
996.6420428331019
 31
0.0
  0
LINE
  5
8095
330
1F
100
AcDbEntity
  8
0
100
AcDbLine
 10
92.69000000000028
 20
993.6754998149517
 30
0.0
 11
92.69000000000028
 21
996.6420428331019
 31
0.0
  0
LINE
  5
8096
330
1F
100
AcDbEntity
  8
0
100
AcDbLine
 10
90.38000000000034
 20
993.6754998149517
 30
0.0
 11
90.38000000000034
 21
996.6420428331019
 31
0.0
  0
ARC
  5
8097
330
1F
100
AcDbEntity
  8
0
100
AcDbCircle
 10
95.00000000000023
 20
1000.950066646235
 30
0.0
 40
7.63252399818127
100
AcDbArc
 50
252.3830311596232
 51
287.6169688403911
  0
ARC
  5
8098
330
1F
100
AcDbEntity
  8
0
100
AcDbCircle
 10
91.53500000000031
 20
995.359907585186
 30
0.0
 40
2.042364937131917
100
AcDbArc
 50
244.4384694047272
 51
304.4384694047219
  0
ARC
  5
8099
330
1F
100
AcDbEntity
  8
0
100
AcDbCircle
 10
98.46500000000037
 20
995.359907585186
 30
0.0
 40
2.042364937131906
100
AcDbArc
 50
235.5615305952781
 51
295.5615305952727
  0
LINE
  5
809A
330
1F
100
AcDbEntity
  8
0
100
AcDbLine
 10
99.62000000000035
 20
993.6754998149517
 30
0.0
 11
98.45000000000027
 21
992.9999999999999
 31
0.0
  0
LINE
  5
809B
330
1F
100
AcDbEntity
  8
0
100
AcDbLine
 10
90.38000000000034
 20
993.6754998149517
 30
0.0
 11
91.55000000000041
 21
992.9999999999999
 31
0.0
  0
LINE
  5
809C
330
1F
100
AcDbEntity
  8
0
100
AcDbLine
 10
98.45000000000027
 20
992.9999999999999
 30
0.0
 11
91.55000000000041
 21
992.9999999999999
 31
0.0
  0
ARC
  5
809D
330
1F
100
AcDbEntity
  8
0
100
AcDbCircle
 10
95.00000000000023
 20
989.3674760018184
 30
0.0
 40
7.632523998181309
100
AcDbArc
 50
72.38303115962323
 51
107.6169688403768
  0
ARC
  5
809E
330
1F
100
AcDbEntity
  8
0
100
AcDbCircle
 10
91.53500000000031
 20
994.9576350628685
 30
0.0
 40
2.042364937131917
100
AcDbArc
 50
55.56153059527809
 51
115.5615305952727
  0
ARC
  5
809F
330
1F
100
AcDbEntity
  8
0
100
AcDbCircle
 10
98.46500000000037
 20
994.9576350628685
 30
0.0
 40
2.042364937131917
100
AcDbArc
 50
64.43846940472724
 51
124.4384694047219
  0
ARC
  5
80A0
330
1F
100
AcDbEntity
  8
0
100
AcDbCircle
 10
95.00000000000023
 20
999.2499999999999
 30
0.0
 40
3.75
100
AcDbArc
 50
0.0
 51
180.0
  0
LINE
  5
80A1
330
1F
100
AcDbEntity
  8
0
100
AcDbLine
 10
98.75000000000023
 20
996.9999999999998
 30
0.0
 11
91.25000000000023
 21
996.9999999999998
 31
0.0
  0
LINE
  5
80A2
330
1F
100
AcDbEntity
  8
0
100
AcDbLine
 10
91.25000000000023
 20
996.9999999999998
 30
0.0
 11
91.00000000000022
 21
996.9999999999998
 31
0.0
  0
LINE
  5
80A3
330
1F
100
AcDbEntity
  8
0
100
AcDbLine
 10
91.25000000000023
 20
999.2499999999999
 30
0.0
 11
91.25000000000023
 21
996.9999999999998
 31
0.0
  0
LINE
  5
80A4
330
1F
100
AcDbEntity
  8
0
100
AcDbLine
 10
98.75000000000023
 20
999.2499999999999
 30
0.0
 11
98.75000000000023
 21
996.9999999999998
 31
0.0
  0
LINE
  5
80A5
330
1F
100
AcDbEntity
  8
0
100
AcDbLine
 10
99.62000000000035
 20
996.6420428331019
 30
0.0
 11
99.00000000000023
 21
996.9999999999998
 31
0.0
  0
LINE
  5
80A6
330
1F
100
AcDbEntity
  8
0
100
AcDbLine
 10
90.38000000000034
 20
996.6420428331019
 30
0.0
 11
91.00000000000022
 21
996.9999999999998
 31
0.0
  0
LINE
  5
80A7
330
1F
100
AcDbEntity
  8
0
100
AcDbLine
 10
99.00000000000023
 20
996.9999999999998
 30
0.0
 11
98.75000000000023
 21
996.9999999999998
 31
0.0
  0
LINE
  5
80BA
330
1F
100
AcDbEntity
  8
0
100
AcDbLine
 10
85.00000000000023
 20
1418.0
 30
0.0
 11
85.00000000000033
 21
967.9999999999999
 31
0.0
  0
LINE
  5
80BB
330
1F
100
AcDbEntity
  8
0
100
AcDbLine
 10
87.50000000000023
 20
1393.0
 30
0.0
 11
87.50000000000033
 21
992.9999999999999
 31
0.0
  0
LINE
  5
80BC
330
1F
100
AcDbEntity
  8
0
100
AcDbLine
 10
82.50000000000023
 20
1393.0
 30
0.0
 11
82.50000000000033
 21
992.9999999999999
 31
0.0
  0
LINE
  5
80BE
330
1F
100
AcDbEntity
  8
0
100
AcDbLine
 10
-97.49999999999978
 20
977.9999999999999
 30
0.0
 11
-97.49999999999989
 21
15.0
 31
0.0
  0
LINE
  5
80BF
330
1F
100
AcDbEntity
  8
0
100
AcDbLine
 10
-92.49999999999976
 20
977.9999999999999
 30
0.0
 11
-92.49999999999989
 21
15.0
 31
0.0
  0
LINE
  5
80C0
330
1F
100
AcDbEntity
  8
0
100
AcDbLine
 10
-97.30999999999983
 20
-0.6754998149517633
 30
0.0
 11
-97.30999999999983
 21
-3.64204283310255
 31
0.0
  0
LINE
  5
80C1
330
1F
100
AcDbEntity
  8
0
100
AcDbLine
 10
-99.61999999999978
 20
-0.6754998149517633
 30
0.0
 11
-99.61999999999978
 21
-3.64204283310255
 31
0.0
  0
LINE
  5
80C2
330
1F
100
AcDbEntity
  8
0
100
AcDbLine
 10
-92.68999999999971
 20
-0.6754998149517633
 30
0.0
 11
-92.68999999999971
 21
-3.64204283310255
 31
0.0
  0
LINE
  5
80C3
330
1F
100
AcDbEntity
  8
0
100
AcDbLine
 10
-90.37999999999977
 20
-0.6754998149517633
 30
0.0
 11
-90.37999999999977
 21
-3.64204283310255
 31
0.0
  0
ARC
  5
80C4
330
1F
100
AcDbEntity
  8
0
100
AcDbCircle
 10
-94.99999999999989
 20
-7.950066646235427
 30
0.0
 40
7.63252399818127
100
AcDbArc
 50
72.38303115960883
 51
107.6169688403912
  0
ARC
  5
80C5
330
1F
100
AcDbEntity
  8
0
100
AcDbCircle
 10
-91.53499999999974
 20
-2.359907585186192
 30
0.0
 40
2.042364937131917
100
AcDbArc
 50
64.43846940472724
 51
124.4384694047155
  0
ARC
  5
80C6
330
1F
100
AcDbEntity
  8
0
100
AcDbCircle
 10
-98.46499999999981
 20
-2.359907585186192
 30
0.0
 40
2.042364937131906
100
AcDbArc
 50
55.56153059528447
 51
115.5615305952727
  0
LINE
  5
80C7
330
1F
100
AcDbEntity
  8
0
100
AcDbLine
 10
-99.61999999999978
 20
-0.6754998149517633
 30
0.0
 11
-98.4499999999997
 21
0.0
 31
0.0
  0
LINE
  5
80C8
330
1F
100
AcDbEntity
  8
0
100
AcDbLine
 10
-90.37999999999977
 20
-0.6754998149517633
 30
0.0
 11
-91.54999999999962
 21
0.0
 31
0.0
  0
LINE
  5
80C9
330
1F
100
AcDbEntity
  8
0
100
AcDbLine
 10
-98.4499999999997
 20
0.0
 30
0.0
 11
-91.54999999999962
 21
0.0
 31
0.0
  0
ARC
  5
80CA
330
1F
100
AcDbEntity
  8
0
100
AcDbCircle
 10
-94.99999999999989
 20
3.632523998181113
 30
0.0
 40
7.632523998181309
100
AcDbArc
 50
252.3830311596088
 51
287.6169688403911
  0
ARC
  5
80CB
330
1F
100
AcDbEntity
  8
0
100
AcDbCircle
 10
-91.53499999999974
 20
-1.957635062868121
 30
0.0
 40
2.042364937131917
100
AcDbArc
 50
235.5615305952845
 51
295.5615305952727
  0
ARC
  5
80CC
330
1F
100
AcDbEntity
  8
0
100
AcDbCircle
 10
-98.46499999999981
 20
-1.957635062868121
 30
0.0
 40
2.042364937131917
100
AcDbArc
 50
244.4384694047272
 51
304.4384694047155
  0
ARC
  5
80CD
330
1F
100
AcDbEntity
  8
0
100
AcDbCircle
 10
-94.99999999999989
 20
-6.25
 30
0.0
 40
3.75
100
AcDbArc
 50
180.0
 51
0.0
  0
LINE
  5
80CE
330
1F
100
AcDbEntity
  8
0
100
AcDbLine
 10
-98.74999999999989
 20
-4.0
 30
0.0
 11
-91.24999999999989
 21
-4.0
 31
0.0
  0
LINE
  5
80CF
330
1F
100
AcDbEntity
  8
0
100
AcDbLine
 10
-91.24999999999989
 20
-4.0
 30
0.0
 11
-90.99999999999988
 21
-4.0
 31
0.0
  0
LINE
  5
80D0
330
1F
100
AcDbEntity
  8
0
100
AcDbLine
 10
-91.24999999999989
 20
-6.25
 30
0.0
 11
-91.24999999999989
 21
-4.0
 31
0.0
  0
LINE
  5
80D1
330
1F
100
AcDbEntity
  8
0
100
AcDbLine
 10
-98.74999999999989
 20
-6.25
 30
0.0
 11
-98.74999999999989
 21
-4.0
 31
0.0
  0
LINE
  5
80D2
330
1F
100
AcDbEntity
  8
0
100
AcDbLine
 10
-99.61999999999978
 20
-3.64204283310255
 30
0.0
 11
-98.99999999999989
 21
-4.0
 31
0.0
  0
LINE
  5
80D3
330
1F
100
AcDbEntity
  8
0
100
AcDbLine
 10
-90.37999999999977
 20
-3.64204283310255
 30
0.0
 11
-90.99999999999988
 21
-4.0
 31
0.0
  0
LINE
  5
80D4
330
1F
100
AcDbEntity
  8
0
100
AcDbLine
 10
-98.99999999999989
 20
-4.0
 30
0.0
 11
-98.74999999999989
 21
-4.0
 31
0.0
  0
LINE
  5
80D5
330
1F
100
AcDbEntity
  8
0
100
AcDbLine
 10
87.31000000000017
 20
977.3245001850481
 30
0.0
 11
87.31000000000017
 21
974.3579571668977
 31
0.0
  0
LINE
  5
80D6
330
1F
100
AcDbEntity
  8
0
100
AcDbLine
 10
89.62000000000012
 20
977.3245001850481
 30
0.0
 11
89.62000000000012
 21
974.3579571668977
 31
0.0
  0
LINE
  5
80D7
330
1F
100
AcDbEntity
  8
0
100
AcDbLine
 10
82.69000000000005
 20
977.3245001850481
 30
0.0
 11
82.69000000000005
 21
974.3579571668977
 31
0.0
  0
LINE
  5
80D8
330
1F
100
AcDbEntity
  8
0
100
AcDbLine
 10
80.3800000000001
 20
977.3245001850481
 30
0.0
 11
80.3800000000001
 21
974.3579571668977
 31
0.0
  0
ARC
  5
80D9
330
1F
100
AcDbEntity
  8
0
100
AcDbCircle
 10
85.00000000000023
 20
970.0499333537644
 30
0.0
 40
7.63252399818127
100
AcDbArc
 50
72.38303115960883
 51
107.6169688403912
  0
ARC
  5
80DA
330
1F
100
AcDbEntity
  8
0
100
AcDbCircle
 10
81.53500000000008
 20
975.6400924148136
 30
0.0
 40
2.042364937131917
100
AcDbArc
 50
55.56153059528447
 51
115.5615305952727
  0
ARC
  5
80DB
330
1F
100
AcDbEntity
  8
0
100
AcDbCircle
 10
88.46500000000014
 20
975.6400924148136
 30
0.0
 40
2.042364937131906
100
AcDbArc
 50
64.43846940472724
 51
124.4384694047155
  0
LINE
  5
80DC
330
1F
100
AcDbEntity
  8
0
100
AcDbLine
 10
89.62000000000012
 20
977.3245001850481
 30
0.0
 11
88.45000000000004
 21
977.9999999999999
 31
0.0
  0
LINE
  5
80DD
330
1F
100
AcDbEntity
  8
0
100
AcDbLine
 10
80.3800000000001
 20
977.3245001850481
 30
0.0
 11
81.55000000000018
 21
977.9999999999999
 31
0.0
  0
LINE
  5
80DE
330
1F
100
AcDbEntity
  8
0
100
AcDbLine
 10
88.45000000000004
 20
977.9999999999999
 30
0.0
 11
81.55000000000018
 21
977.9999999999999
 31
0.0
  0
ARC
  5
80DF
330
1F
100
AcDbEntity
  8
0
100
AcDbCircle
 10
85.00000000000023
 20
981.6325239981814
 30
0.0
 40
7.632523998181309
100
AcDbArc
 50
252.3830311596088
 51
287.6169688403911
  0
ARC
  5
80E0
330
1F
100
AcDbEntity
  8
0
100
AcDbCircle
 10
81.53500000000008
 20
976.0423649371313
 30
0.0
 40
2.042364937131917
100
AcDbArc
 50
244.4384694047272
 51
304.4384694047155
  0
ARC
  5
80E1
330
1F
100
AcDbEntity
  8
0
100
AcDbCircle
 10
88.46500000000014
 20
976.0423649371313
 30
0.0
 40
2.042364937131917
100
AcDbArc
 50
235.5615305952845
 51
295.5615305952727
  0
ARC
  5
80E2
330
1F
100
AcDbEntity
  8
0
100
AcDbCircle
 10
85.00000000000023
 20
971.7499999999999
 30
0.0
 40
3.75
100
AcDbArc
 50
180.0
 51
0.0
  0
LINE
  5
80E3
330
1F
100
AcDbEntity
  8
0
100
AcDbLine
 10
88.75000000000023
 20
973.9999999999998
 30
0.0
 11
81.25000000000023
 21
973.9999999999998
 31
0.0
  0
LINE
  5
80E4
330
1F
100
AcDbEntity
  8
0
100
AcDbLine
 10
81.25000000000023
 20
973.9999999999998
 30
0.0
 11
81.00000000000022
 21
973.9999999999998
 31
0.0
  0
LINE
  5
80E5
330
1F
100
AcDbEntity
  8
0
100
AcDbLine
 10
81.25000000000023
 20
971.7499999999999
 30
0.0
 11
81.25000000000023
 21
973.9999999999998
 31
0.0
  0
LINE
  5
80E6
330
1F
100
AcDbEntity
  8
0
100
AcDbLine
 10
88.75000000000023
 20
971.7499999999999
 30
0.0
 11
88.75000000000023
 21
973.9999999999998
 31
0.0
  0
LINE
  5
80E7
330
1F
100
AcDbEntity
  8
0
100
AcDbLine
 10
89.62000000000012
 20
974.3579571668977
 30
0.0
 11
89.00000000000023
 21
973.9999999999998
 31
0.0
  0
LINE
  5
80E8
330
1F
100
AcDbEntity
  8
0
100
AcDbLine
 10
80.3800000000001
 20
974.3579571668977
 30
0.0
 11
81.00000000000022
 21
973.9999999999998
 31
0.0
  0
LINE
  5
80E9
330
1F
100
AcDbEntity
  8
0
100
AcDbLine
 10
89.00000000000023
 20
973.9999999999998
 30
0.0
 11
88.75000000000023
 21
973.9999999999998
 31
0.0
  0
LINE
  5
80EA
330
1F
100
AcDbEntity
  8
0
100
AcDbLine
 10
-97.30999999999973
 20
993.6754998149517
 30
0.0
 11
-97.30999999999973
 21
996.6420428331019
 31
0.0
  0
LINE
  5
80EB
330
1F
100
AcDbEntity
  8
0
100
AcDbLine
 10
-99.61999999999989
 20
993.6754998149517
 30
0.0
 11
-99.61999999999989
 21
996.6420428331019
 31
0.0
  0
LINE
  5
80EC
330
1F
100
AcDbEntity
  8
0
100
AcDbLine
 10
-92.68999999999982
 20
993.6754998149517
 30
0.0
 11
-92.68999999999982
 21
996.6420428331019
 31
0.0
  0
LINE
  5
80ED
330
1F
100
AcDbEntity
  8
0
100
AcDbLine
 10
-90.37999999999987
 20
993.6754998149517
 30
0.0
 11
-90.37999999999987
 21
996.6420428331019
 31
0.0
  0
ARC
  5
80EE
330
1F
100
AcDbEntity
  8
0
100
AcDbCircle
 10
-94.99999999999976
 20
1000.950066646235
 30
0.0
 40
7.63252399818127
100
AcDbArc
 50
252.3830311596088
 51
287.6169688403768
  0
ARC
  5
80EF
330
1F
100
AcDbEntity
  8
0
100
AcDbCircle
 10
-91.53499999999985
 20
995.359907585186
 30
0.0
 40
2.042364937131917
100
AcDbArc
 50
235.5615305952845
 51
295.5615305952727
  0
ARC
  5
80F0
330
1F
100
AcDbEntity
  8
0
100
AcDbCircle
 10
-98.46499999999991
 20
995.359907585186
 30
0.0
 40
2.042364937131906
100
AcDbArc
 50
244.4384694047272
 51
304.4384694047155
  0
LINE
  5
80F1
330
1F
100
AcDbEntity
  8
0
100
AcDbLine
 10
-99.61999999999989
 20
993.6754998149517
 30
0.0
 11
-98.44999999999982
 21
992.9999999999999
 31
0.0
  0
LINE
  5
80F2
330
1F
100
AcDbEntity
  8
0
100
AcDbLine
 10
-90.37999999999987
 20
993.6754998149517
 30
0.0
 11
-91.54999999999995
 21
992.9999999999999
 31
0.0
  0
LINE
  5
80F3
330
1F
100
AcDbEntity
  8
0
100
AcDbLine
 10
-98.44999999999982
 20
992.9999999999999
 30
0.0
 11
-91.54999999999995
 21
992.9999999999999
 31
0.0
  0
ARC
  5
80F4
330
1F
100
AcDbEntity
  8
0
100
AcDbCircle
 10
-94.99999999999976
 20
989.3674760018184
 30
0.0
 40
7.632523998181309
100
AcDbArc
 50
72.38303115962323
 51
107.6169688403768
  0
ARC
  5
80F5
330
1F
100
AcDbEntity
  8
0
100
AcDbCircle
 10
-91.53499999999985
 20
994.9576350628685
 30
0.0
 40
2.042364937131917
100
AcDbArc
 50
64.43846940472724
 51
124.4384694047155
  0
ARC
  5
80F6
330
1F
100
AcDbEntity
  8
0
100
AcDbCircle
 10
-98.46499999999991
 20
994.9576350628685
 30
0.0
 40
2.042364937131917
100
AcDbArc
 50
55.56153059528447
 51
115.5615305952727
  0
ARC
  5
80F7
330
1F
100
AcDbEntity
  8
0
100
AcDbCircle
 10
-94.99999999999976
 20
999.2499999999999
 30
0.0
 40
3.75
100
AcDbArc
 50
0.0
 51
180.0
  0
LINE
  5
80F8
330
1F
100
AcDbEntity
  8
0
100
AcDbLine
 10
-98.74999999999978
 20
996.9999999999998
 30
0.0
 11
-91.24999999999976
 21
996.9999999999998
 31
0.0
  0
LINE
  5
80F9
330
1F
100
AcDbEntity
  8
0
100
AcDbLine
 10
-91.24999999999976
 20
996.9999999999998
 30
0.0
 11
-90.99999999999978
 21
996.9999999999998
 31
0.0
  0
LINE
  5
80FA
330
1F
100
AcDbEntity
  8
0
100
AcDbLine
 10
-91.24999999999976
 20
999.2499999999999
 30
0.0
 11
-91.24999999999976
 21
996.9999999999998
 31
0.0
  0
LINE
  5
80FB
330
1F
100
AcDbEntity
  8
0
100
AcDbLine
 10
-98.74999999999978
 20
999.2499999999999
 30
0.0
 11
-98.74999999999978
 21
996.9999999999998
 31
0.0
  0
LINE
  5
80FC
330
1F
100
AcDbEntity
  8
0
100
AcDbLine
 10
-99.61999999999989
 20
996.6420428331019
 30
0.0
 11
-98.99999999999977
 21
996.9999999999998
 31
0.0
  0
LINE
  5
80FD
330
1F
100
AcDbEntity
  8
0
100
AcDbLine
 10
-90.37999999999987
 20
996.6420428331019
 30
0.0
 11
-90.99999999999978
 21
996.9999999999998
 31
0.0
  0
LINE
  5
80FE
330
1F
100
AcDbEntity
  8
0
100
AcDbLine
 10
-98.99999999999977
 20
996.9999999999998
 30
0.0
 11
-98.74999999999978
 21
996.9999999999998
 31
0.0
  0
LINE
  5
81C9
330
1F
100
AcDbEntity
  8
0
100
AcDbLine
 10
-0.0000000000001137
 20
-113.0
 30
0.0
 11
-0.0000000000001137
 21
-103.0
 31
0.0
  0
LINE
  5
81CA
330
1F
100
AcDbEntity
  8
0
100
AcDbLine
 10
-221.4999999999999
 20
398.0000000000001
 30
0.0
 11
-211.4999999999999
 21
398.0000000000001
 31
0.0
  0
LINE
  5
81CB
330
1F
100
AcDbEntity
  8
0
100
AcDbLine
 10
-221.4999999999998
 20
847.9999999999998
 30
0.0
 11
-211.4999999999997
 21
847.9999999999998
 31
0.0
  0
LINE
  5
81CC
330
1F
100
AcDbEntity
  8
0
100
AcDbLine
 10
221.5000000000002
 20
622.9999999999998
 30
0.0
 11
211.5000000000002
 21
622.9999999999998
 31
0.0
  0
LINE
  5
81CD
330
1F
100
AcDbEntity
  8
0
100
AcDbLine
 10
221.5
 20
172.9999999999999
 30
0.0
 11
211.5
 21
172.9999999999999
 31
0.0
  0
VIEWPORT
  5
27EF
330
1B
100
AcDbEntity
 67
     1
  8
0
100
AcDbViewport
 10
185.7428160319168
 20
103.3952660148804
 30
0.0
 40
2749.281487989994
 41
1202.718417988108
 68
     1
 69
     1
 12
185.7428160319168
 22
103.3952660148804
 13
0.0
 23
0.0
 14
2.5
 24
2.5
 15
10.0
 25
10.0
 16
0.0
 26
0.0
 36
1.0
 17
0.0
 27
0.0
 37
0.0
 42
50.0
 43
0.0
 44
0.0
 45
1202.718417988108
 50
0.0
 51
0.0
 72
   100
 90
    32800
  1

281
     0
 71
     1
 74
     0
110
0.0
120
0.0
130
0.0
111
1.0
121
0.0
131
0.0
112
0.0
122
1.0
132
0.0
 79
     0
146
0.0
170
     0
 61
     5
348
42D5
292
     1
282
     1
141
0.0
142
0.0
 63
   250
421
  3355443
  0
ENDSEC
  0
SECTION
  2
OBJECTS
  0
DICTIONARY
  5
C
330
0
100
AcDbDictionary
281
     1
  3
ACAD_COLOR
350
40DA
  3
ACAD_GROUP
350
D
  3
ACAD_IMAGE_DICT
350
2538
  3
ACAD_IMAGE_VARS
350
2550
  3
ACAD_LAYOUT
350
1A
  3
ACAD_MATERIAL
350
40D9
  3
ACAD_MLINESTYLE
350
17
  3
ACAD_PLOTSETTINGS
350
19
  3
ACAD_PLOTSTYLENAME
350
E
  3
ACAD_TABLESTYLE
350
42E0
  3
ACAD_VISUALSTYLE
350
42CF
  3
AcDbVariableDictionary
350
2A8
  3
AcmDictionary
350
45
  3
AMG
350
2B
  3
AMGSNAPSETTINGS
350
D4
  0
DICTIONARY
  5
42A1
330
2
100
AcDbDictionary
280
     1
281
     1
  3
ACAD_LAYERFILTERS
360
7CBC
  3
ACAD_LAYERSTATES
360
430B
  3
ACLYDICTIONARY
360
7CBB
  3
AMLAYER_GROUPCOLORS
360
42A2
  0
DICTIONARY
  5
2A3
330
1F
100
AcDbDictionary
280
     1
281
     1
  3
ACAD_SORTENTS
360
4451
  0
DICTIONARY
  5
5FFF
330
1B
100
AcDbDictionary
280
     1
281
     1
  3
ACAD_SORTENTS
360
6000
  0
DICTIONARY
  5
40DA
102
{ACAD_REACTORS
330
C
102
}
330
C
100
AcDbDictionary
281
     1
  0
DICTIONARY
  5
D
102
{ACAD_REACTORS
330
C
102
}
330
C
100
AcDbDictionary
281
     1
  0
DICTIONARY
  5
2538
102
{ACAD_REACTORS
330
C
102
}
330
C
100
AcDbDictionary
281
     1
  3
SLD-ISO-Zertifizierung
350
4AB5
  0
RASTERVARIABLES
  5
2550
102
{ACAD_REACTORS
330
C
102
}
330
C
100
AcDbRasterVariables
 90
        0
 70
     1
 71
     1
 72
     1
  0
DICTIONARY
  5
1A
102
{ACAD_REACTORS
330
C
102
}
330
C
100
AcDbDictionary
281
     1
  3
Layout
350
1E
  3
Model
350
22
  0
DICTIONARY
  5
40D9
102
{ACAD_REACTORS
330
C
102
}
330
C
100
AcDbDictionary
281
     1
  3
ByBlock
350
42CD
  3
ByLayer
350
42CC
  3
Global
350
42CE
  0
DICTIONARY
  5
17
102
{ACAD_REACTORS
330
C
102
}
330
C
100
AcDbDictionary
281
     1
  3
Standard
350
18
  0
DICTIONARY
  5
19
102
{ACAD_REACTORS
330
C
102
}
330
C
100
AcDbDictionary
281
     1
  0
ACDBDICTIONARYWDFLT
  5
E
102
{ACAD_REACTORS
330
C
102
}
330
C
100
AcDbDictionary
281
     1
  3
Normal
350
F
100
AcDbDictionaryWithDefault
340
F
  0
DICTIONARY
  5
42E0
102
{ACAD_REACTORS
330
C
102
}
330
C
100
AcDbDictionary
281
     1
  3
Standard
350
42E1
  0
DICTIONARY
  5
42CF
102
{ACAD_REACTORS
330
C
102
}
330
C
100
AcDbDictionary
281
     1
  3
2dWireframe
350
42D5
  3
3D Hidden
350
42D7
  3
3dWireframe
350
42D6
  3
Basic
350
42D4
  3
Brighten
350
42DB
  3
ColorChange
350
42DF
  3
Conceptual
350
42D8
  3
Dim
350
42DA
  3
Facepattern
350
42DE
  3
Flat
350
42D0
  3
FlatWithEdges
350
42D1
  3
Gouraud
350
42D2
  3
GouraudWithEdges
350
42D3
  3
Linepattern
350
42DD
  3
Realistic
350
42D9
  3
Thicken
350
42DC
  0
DICTIONARY
  5
2A8
102
{ACAD_REACTORS
330
C
102
}
330
C
100
AcDbDictionary
281
     1
  3
CTABLESTYLE
350
4335
  3
DIMASSOC
350
2AB
  3
HIDETEXT
350
2AA
  3
INDEXCTL
350
2A9
  0
DICTIONARY
  5
45
102
{ACAD_REACTORS
330
C
102
}
330
C
100
AcDbDictionary
281
     1
  3
AcmBOM
350
2F58
  3
AcmStdDictionary
350
4A
  3
AMDTSECTSYM_ARROWCOLOR
350
40E0
  0
DICTIONARY
  5
2B
102
{ACAD_REACTORS
330
C
102
}
330
C
100
AcDbDictionary
281
     1
  0
DICTIONARY
  5
D4
102
{ACAD_REACTORS
330
C
102
}
330
C
100
AcDbDictionary
281
     1
  0
DICTIONARY
  5
7CBC
102
{ACAD_REACTORS
330
42A1
102
}
330
42A1
100
AcDbDictionary
281
     1
  0
DICTIONARY
  5
430B
102
{ACAD_REACTORS
330
42A1
102
}
330
42A1
100
AcDbDictionary
281
     1
  0
DICTIONARY
  5
7CBB
102
{ACAD_REACTORS
330
42A1
102
}
330
42A1
100
AcDbDictionary
281
     1
1001
ACAD
1000
<All
  0
DICTIONARY
  5
42A2
102
{ACAD_REACTORS
330
42A1
102
}
330
42A1
100
AcDbDictionary
280
     1
281
     1
  0
SORTENTSTABLE
  5
4451
102
{ACAD_REACTORS
330
2A3
102
}
330
2A3
100
AcDbSortentsTable
330
1F
331
8089
  5
808B
331
7B0F
  5
7B13
331
7AF5
  5
7AF7
331
7AD3
  5
7AD5
331
7B20
  5
7B24
331
7B06
  5
7B0A
331
7AE4
  5
7AE6
331
7B51
  5
7B57
331
7B0D
  5
7B11
331
7AF3
  5
7AF5
331
7AD1
  5
7AD3
331
8087
  5
8089
331
7B62
  5
7B68
331
7B1E
  5
7B22
331
7B04
  5
7B08
331
7AE2
  5
7AE4
331
7B71
  5
807A
331
7B0B
  5
7B0F
331
7AF1
  5
7AF3
331
8085
  5
8087
331
7B1C
  5
7B20
331
7B02
  5
7B06
331
7AE0
  5
7AE2
331
7ACF
  5
7AD1
331
7B6F
  5
7B75
331
7B2B
  5
7B35
331
7B09
  5
7B0D
331
8083
  5
8085
331
7B1A
  5
7B1E
331
7B00
  5
7B04
331
7ADE
  5
7AE0
331
7AEF
  5
7AF1
331
7ACD
  5
7ACE
331
7B29
  5
7B2F
331
8092
  5
7AFC
331
8081
  5
8083
331
7B18
  5
7B1C
331
7AFE
  5
7B02
331
7ADC
  5
7ADE
331
7AED
  5
7AEF
331
7ACB
  5
7ACB
331
8090
  5
8092
331
807F
  5
8081
331
7B16
  5
7B1A
331
7AFC
  5
7B00
331
7ADA
  5
7ADC
331
7B27
  5
7B2B
331
7AEB
  5
7AED
331
7AC9
  5
7AC9
331
808E
  5
8090
331
807D
  5
807F
331
7B14
  5
7B18
331
7AD8
  5
7ADA
331
7AE9
  5
7AEB
331
808C
  5
808E
331
7B12
  5
7B16
331
7AD6
  5
7AD8
331
7B23
  5
7B27
331
7AE7
  5
7AE9
331
808A
  5
808C
331
8079
  5
807D
331
7B10
  5
7B14
331
7AF6
  5
7AF8
331
7AD4
  5
7AD6
331
7B21
  5
7B25
331
7B07
  5
7B0B
331
7AE5
  5
7AE7
331
8088
  5
808A
331
7B0E
  5
7B12
331
7AF4
  5
7AF6
331
7AD2
  5
7AD4
331
7B63
  5
7B6B
331
7B1F
  5
7B23
331
7B05
  5
7B09
331
7AE3
  5
7AE5
331
7B0C
  5
7B10
331
7AF2
  5
7AF4
331
7AD0
  5
7AD2
331
8086
  5
8088
331
7B61
  5
7B65
331
7B1D
  5
7B21
331
7B03
  5
7B07
331
7AE1
  5
7AE3
331
7B70
  5
8079
331
7B0A
  5
7B0E
331
7AF0
  5
7AF2
331
8084
  5
8086
331
7B1B
  5
7B1F
331
7B01
  5
7B05
331
7ADF
  5
7AE1
331
7ACE
  5
7AD0
331
7B6E
  5
7B72
331
7B2A
  5
7B32
331
7B08
  5
7B0C
331
8082
  5
8084
331
7B19
  5
7B1D
331
7AFF
  5
7B03
331
7ADD
  5
7ADF
331
7AEE
  5
7AF0
331
7ACC
  5
7ACC
331
7B28
  5
7B2C
331
8091
  5
7AFE
331
8080
  5
8082
331
7B17
  5
7B1B
331
7AFD
  5
7B01
331
7ADB
  5
7ADD
331
7AEC
  5
7AEE
331
7ACA
  5
7ACA
331
808F
  5
8091
331
807E
  5
8080
331
7B15
  5
7B19
331
7AFB
  5
7AFF
331
7AD9
  5
7ADB
331
7AEA
  5
7AEC
331
7AC8
  5
7AC8
331
808D
  5
808F
331
807C
  5
807E
331
7B13
  5
7B17
331
7AD7
  5
7AD9
331
7B24
  5
7B28
331
7AE8
  5
7AEA
331
808B
  5
808D
331
7B11
  5
7B15
331
7AF7
  5
7AF9
331
7AD5
  5
7AD7
331
7B22
  5
7B26
331
7AE6
  5
7AE8
  0
SORTENTSTABLE
  5
6000
102
{ACAD_REACTORS
330
5FFF
102
}
330
5FFF
100
AcDbSortentsTable
330
1B
331
27EF
  5
27EF
  0
IMAGEDEF
  5
4AB5
102
{ACAD_REACTORS
330
2538
102
}
330
2538
100
AcDbRasterImageDef
 90
        0
  1
E:\Work\Kunden\Stoecklin Logistik\Dokumentation\Plankopf Inventor\SLD-ISO-Zertifizierung.bmp
 10
100.0
 20
96.0
 11
0.264550269889837
 21
0.264550269889837
280
     1
281
     2
  0
LAYOUT
  5
1E
102
{ACAD_XDICTIONARY
360
4324
102
}
102
{ACAD_REACTORS
330
1A
102
}
330
1A
100
AcDbPlotSettings
  1

  2
pdfFactory.pc3
  4
A4
  6

 40
7.143749713897705
 41
7.143725872039794
 42
7.14373779296875
 43
7.14373779296875
 44
209.9733276367187
 45
297.0106506347656
 46
-4.657079935073852
 47
-4.638406515121459
 48
0.0
 49
0.0
140
205.0
141
292.0
142
1.0
143
1.0
 70
   676
 72
     1
 73
     0
 74
     4
  7
monochrome.ctb
 75
     0
147
0.9545650412396685
 76
     1
 77
     2
 78
   300
148
0.0
149
0.0
100
AcDbLayout
  1
Layout
 70
     1
 71
     1
 10
81.34683633122358
 20
0.0
 11
286.3468363312236
 21
292.0
 12
0.0
 22
0.0
 32
0.0
 14
1.000000000000000E+20
 24
1.000000000000000E+20
 34
1.000000000000000E+20
 15
-1.000000000000000E+20
 25
-1.000000000000000E+20
 35
-1.000000000000000E+20
146
0.0
 13
0.0
 23
0.0
 33
0.0
 16
1.0
 26
0.0
 36
0.0
 17
0.0
 27
1.0
 37
0.0
 76
     0
330
1B
331
27EF
1001
ACAD_PSEXT
1000
pdfFactory.pc3
1000
pdfFactory 2
1000
FPP2:
1000

1070
     0
  0
LAYOUT
  5
22
102
{ACAD_REACTORS
330
1A
102
}
330
1A
100
AcDbPlotSettings
  1

  2
pdfFactory
  4
A4
  6
AM_VIEW1
 40
7.143749713897705
 41
7.143725872039794
 42
7.14373779296875
 43
7.14373779296875
 44
209.9733276367187
 45
297.0106506347656
 46
2.842920064926147
 47
0.36159348487854
 48
15.0
 49
5.0
140
205.0
141
287.0
142
1.0
143
1.0
 70
 11956
 72
     1
 73
     0
 74
     4
  7
monochrome.ctb
 75
    16
147
1.0
 76
     0
 77
     2
 78
   300
148
-15.0
149
-5.0
100
AcDbLayout
  1
Model
 70
     1
 71
     0
 10
0.0
 20
0.0
 11
12.0
 21
9.0
 12
0.0
 22
0.0
 32
0.0
 14
0.0
 24
0.0
 34
0.0
 15
0.0
 25
0.0
 35
0.0
146
0.0
 13
0.0
 23
0.0
 33
0.0
 16
1.0
 26
0.0
 36
0.0
 17
0.0
 27
1.0
 37
0.0
 76
     0
330
1F
331
42CA
1001
ACAD_PSEXT
1000
pdfFactory
1000
pdfFactory 2
1000
FPP2:
1000

1070
     0
  0
MATERIAL
  5
42CD
102
{ACAD_REACTORS
330
40D9
102
}
330
40D9
100
AcDbMaterial
  1
ByBlock
  0
MATERIAL
  5
42CC
102
{ACAD_REACTORS
330
40D9
102
}
330
40D9
100
AcDbMaterial
  1
ByLayer
  0
MATERIAL
  5
42CE
102
{ACAD_REACTORS
330
40D9
102
}
330
40D9
100
AcDbMaterial
  1
Global
  0
MLINESTYLE
  5
18
102
{ACAD_REACTORS
330
17
102
}
330
17
100
AcDbMlineStyle
  2
STANDARD
 70
     0
  3

 62
   256
 51
90.0
 52
90.0
 71
     2
 49
0.5
 62
   256
  6
BYLAYER
 49
-0.5
 62
   256
  6
BYLAYER
  0
ACDBPLACEHOLDER
  5
F
102
{ACAD_REACTORS
330
E
102
}
330
E
  0
TABLESTYLE
  5
42E1
102
{ACAD_REACTORS
330
42E0
102
}
330
42E0
100
AcDbTableStyle
  3
Standard
 70
     0
 71
     0
 40
1.5
 41
1.5
280
     0
281
     0
  7
STANDARD
140
4.5
170
     2
 62
     0
 63
     7
283
     0
 90
      512
 91
        0
  1

274
    -2
284
     1
 64
     0
275
    -2
285
     1
 65
     0
276
    -2
286
     1
 66
     0
277
    -2
287
     1
 67
     0
278
    -2
288
     1
 68
     0
279
    -2
289
     1
 69
     0
  7
STANDARD
140
6.0
170
     5
 62
     0
 63
     7
283
     0
 90
      512
 91
        0
  1

274
    -2
284
     1
 64
     0
275
    -2
285
     1
 65
     0
276
    -2
286
     1
 66
     0
277
    -2
287
     1
 67
     0
278
    -2
288
     1
 68
     0
279
    -2
289
     1
 69
     0
  7
STANDARD
140
4.5
170
     5
 62
     0
 63
     7
283
     0
 90
      512
 91
        0
  1

274
    -2
284
     1
 64
     0
275
    -2
285
     1
 65
     0
276
    -2
286
     1
 66
     0
277
    -2
287
     1
 67
     0
278
    -2
288
     1
 68
     0
279
    -2
289
     1
 69
     0
  0
VISUALSTYLE
  5
42D5
102
{ACAD_REACTORS
330
42CF
102
}
330
42CF
100
AcDbVisualStyle
  2
2dWireframe
 70
     4
 71
     0
 72
     2
 73
     0
 90
        0
 40
-0.6
 41
-30.0
 62
     5
 63
     7
421
 16777215
 74
     1
 91
        4
 64
     7
 65
   257
 75
     1
175
     1
 42
1.0
 92
        0
 66
   257
 43
1.0
 76
     1
 77
     6
 78
     2
 67
     7
 79
     5
170
     0
171
     0
290
     0
174
     0
 93
        1
 44
0.0
173
     0
291
     0
 45
0.0
  0
VISUALSTYLE
  5
42D7
102
{ACAD_REACTORS
330
42CF
102
}
330
42CF
100
AcDbVisualStyle
  2
3D Hidden
 70
     6
 71
     1
 72
     2
 73
     2
 90
        0
 40
-0.6
 41
-30.0
 62
     5
 63
     7
421
 16777215
 74
     2
 91
        2
 64
     7
 65
   257
 75
     2
175
     1
 42
40.0
 92
        0
 66
   257
 43
1.0
 76
     1
 77
     6
 78
     2
 67
     7
 79
     3
170
     0
171
     0
290
     0
174
     0
 93
        1
 44
0.0
173
     0
291
     0
 45
0.0
  0
VISUALSTYLE
  5
42D6
102
{ACAD_REACTORS
330
42CF
102
}
330
42CF
100
AcDbVisualStyle
  2
3dWireframe
 70
     5
 71
     0
 72
     2
 73
     0
 90
        0
 40
-0.6
 41
-30.0
 62
     5
 63
     7
421
 16777215
 74
     1
 91
        4
 64
     7
 65
   257
 75
     1
175
     1
 42
1.0
 92
        0
 66
   257
 43
1.0
 76
     1
 77
     6
 78
     2
 67
     7
 79
     5
170
     0
171
     0
290
     0
174
     0
 93
        1
 44
0.0
173
     0
291
     0
 45
0.0
  0
VISUALSTYLE
  5
42D4
102
{ACAD_REACTORS
330
42CF
102
}
330
42CF
100
AcDbVisualStyle
  2
Basic
 70
     7
 71
     1
 72
     0
 73
     1
 90
        0
 40
-0.6
 41
-30.0
 62
     5
 63
     7
421
 16777215
 74
     0
 91
        4
 64
     7
 65
   257
 75
     1
175
     1
 42
1.0
 92
        8
 66
     7
 43
1.0
 76
     1
 77
     6
 78
     2
 67
     7
 79
     5
170
     0
171
     0
290
     0
174
     0
 93
        1
 44
0.0
173
     0
291
     1
 45
0.0
  0
VISUALSTYLE
  5
42DB
102
{ACAD_REACTORS
330
42CF
102
}
330
42CF
100
AcDbVisualStyle
  2
Brighten
 70
    12
 71
     2
 72
     2
 73
     0
 90
        0
 40
-0.6
 41
-30.0
 62
     5
 63
     7
421
 16777215
 74
     1
 91
        4
 64
     7
 65
   257
 75
     1
175
     1
 42
1.0
 92
        8
 66
     7
 43
1.0
 76
     1
 77
     6
 78
     2
 67
     7
 79
     5
170
     0
171
     0
290
     0
174
     0
 93
        1
 44
50.0
173
     0
291
     1
 45
0.0
  0
VISUALSTYLE
  5
42DF
102
{ACAD_REACTORS
330
42CF
102
}
330
42CF
100
AcDbVisualStyle
  2
ColorChange
 70
    16
 71
     2
 72
     2
 73
     3
 90
        0
 40
-0.6
 41
-30.0
 62
     5
 63
     8
421
  8421504
 74
     1
 91
        4
 64
     7
 65
   257
 75
     1
175
     1
 42
1.0
 92
        8
 66
     8
424
  8421504
 43
1.0
 76
     1
 77
     6
 78
     2
 67
     7
 79
     5
170
     0
171
     0
290
     0
174
     0
 93
        1
 44
0.0
173
     0
291
     1
 45
0.0
  0
VISUALSTYLE
  5
42D8
102
{ACAD_REACTORS
330
42CF
102
}
330
42CF
100
AcDbVisualStyle
  2
Conceptual
 70
     9
 71
     3
 72
     2
 73
     0
 90
        0
 40
-0.6
 41
-30.0
 62
     5
 63
     7
421
 16777215
 74
     2
 91
        2
 64
     7
 65
   257
 75
     1
175
     1
 42
40.0
 92
        8
 66
     7
 43
1.0
 76
     1
 77
     6
 78
     2
 67
     7
 79
     3
170
     0
171
     0
290
     0
174
     0
 93
        1
 44
0.0
173
     0
291
     0
 45
0.0
  0
VISUALSTYLE
  5
42DA
102
{ACAD_REACTORS
330
42CF
102
}
330
42CF
100
AcDbVisualStyle
  2
Dim
 70
    11
 71
     2
 72
     2
 73
     0
 90
        0
 40
-0.6
 41
-30.0
 62
     5
 63
     7
421
 16777215
 74
     1
 91
        4
 64
     7
 65
   257
 75
     1
175
     1
 42
1.0
 92
        8
 66
     7
 43
1.0
 76
     1
 77
     6
 78
     2
 67
     7
 79
     5
170
     0
171
     0
290
     0
174
     0
 93
        1
 44
-50.0
173
     0
291
     1
 45
0.0
  0
VISUALSTYLE
  5
42DE
102
{ACAD_REACTORS
330
42CF
102
}
330
42CF
100
AcDbVisualStyle
  2
Facepattern
 70
    15
 71
     2
 72
     2
 73
     0
 90
        0
 40
-0.6
 41
-30.0
 62
     5
 63
     7
421
 16777215
 74
     1
 91
        4
 64
     7
 65
   257
 75
     1
175
     1
 42
1.0
 92
        8
 66
     7
 43
1.0
 76
     1
 77
     6
 78
     2
 67
     7
 79
     5
170
     0
171
     0
290
     0
174
     0
 93
        1
 44
0.0
173
     0
291
     1
 45
0.0
  0
VISUALSTYLE
  5
42D0
102
{ACAD_REACTORS
330
42CF
102
}
330
42CF
100
AcDbVisualStyle
  2
Flat
 70
     0
 71
     2
 72
     1
 73
     1
 90
        2
 40
-0.6
 41
30.0
 62
     5
 63
     7
421
 16777215
 74
     0
 91
        4
 64
     7
 65
   257
 75
     1
175
     1
 42
1.0
 92
        8
 66
     7
 43
1.0
 76
     1
 77
     6
 78
     2
 67
     7
 79
     5
170
     0
171
     0
290
     0
174
     0
 93
       13
 44
0.0
173
     0
291
     1
 45
0.0
  0
VISUALSTYLE
  5
42D1
102
{ACAD_REACTORS
330
42CF
102
}
330
42CF
100
AcDbVisualStyle
  2
FlatWithEdges
 70
     1
 71
     2
 72
     1
 73
     1
 90
        2
 40
-0.6
 41
30.0
 62
     5
 63
     7
421
 16777215
 74
     1
 91
        4
 64
     7
 65
   257
 75
     1
175
     1
 42
1.0
 92
        0
 66
   257
 43
1.0
 76
     1
 77
     6
 78
     2
 67
     7
 79
     5
170
     0
171
     0
290
     0
174
     0
 93
       13
 44
0.0
173
     0
291
     1
 45
0.0
  0
VISUALSTYLE
  5
42D2
102
{ACAD_REACTORS
330
42CF
102
}
330
42CF
100
AcDbVisualStyle
  2
Gouraud
 70
     2
 71
     2
 72
     2
 73
     1
 90
        2
 40
-0.6
 41
30.0
 62
     5
 63
     7
421
 16777215
 74
     0
 91
        4
 64
     7
 65
   257
 75
     1
175
     1
 42
1.0
 92
        0
 66
     7
 43
1.0
 76
     1
 77
     6
 78
     2
 67
     7
 79
     5
170
     0
171
     0
290
     0
174
     0
 93
       13
 44
0.0
173
     0
291
     1
 45
0.0
  0
VISUALSTYLE
  5
42D3
102
{ACAD_REACTORS
330
42CF
102
}
330
42CF
100
AcDbVisualStyle
  2
GouraudWithEdges
 70
     3
 71
     2
 72
     2
 73
     1
 90
        2
 40
-0.6
 41
30.0
 62
     5
 63
     7
421
 16777215
 74
     1
 91
        4
 64
     7
 65
   257
 75
     1
175
     1
 42
1.0
 92
        0
 66
   257
 43
1.0
 76
     1
 77
     6
 78
     2
 67
     7
 79
     5
170
     0
171
     0
290
     0
174
     0
 93
       13
 44
0.0
173
     0
291
     1
 45
0.0
  0
VISUALSTYLE
  5
42DD
102
{ACAD_REACTORS
330
42CF
102
}
330
42CF
100
AcDbVisualStyle
  2
Linepattern
 70
    14
 71
     2
 72
     2
 73
     0
 90
        0
 40
-0.6
 41
-30.0
 62
     5
 63
     7
421
 16777215
 74
     1
 91
        4
 64
     7
 65
   257
 75
     7
175
     7
 42
1.0
 92
        8
 66
     7
 43
1.0
 76
     1
 77
     6
 78
     2
 67
     7
 79
     5
170
     0
171
     0
290
     0
174
     0
 93
        1
 44
0.0
173
     0
291
     1
 45
0.0
  0
VISUALSTYLE
  5
42D9
102
{ACAD_REACTORS
330
42CF
102
}
330
42CF
100
AcDbVisualStyle
  2
Realistic
 70
     8
 71
     2
 72
     2
 73
     0
 90
        0
 40
-0.6
 41
-30.0
 62
     5
 63
     7
421
 16777215
 74
     1
 91
        0
 64
     7
 65
   257
 75
     1
175
     1
 42
1.0
 92
        8
 66
     8
424
  7895160
 43
1.0
 76
     1
 77
     6
 78
     2
 67
     7
 79
     5
170
     0
171
     0
290
     0
174
     0
 93
       13
 44
0.0
173
     0
291
     0
 45
0.0
  0
VISUALSTYLE
  5
42DC
102
{ACAD_REACTORS
330
42CF
102
}
330
42CF
100
AcDbVisualStyle
  2
Thicken
 70
    13
 71
     2
 72
     2
 73
     0
 90
        0
 40
-0.6
 41
-30.0
 62
     5
 63
     7
421
 16777215
 74
     1
 91
        4
 64
     7
 65
   257
 75
     1
175
     1
 42
1.0
 92
       12
 66
     7
 43
1.0
 76
     1
 77
     6
 78
     2
 67
     7
 79
     5
170
     0
171
     0
290
     0
174
     0
 93
        1
 44
0.0
173
     0
291
     1
 45
0.0
  0
DICTIONARYVAR
  5
4335
102
{ACAD_REACTORS
330
2A8
102
}
330
2A8
100
DictionaryVariables
280
     0
  1
STANDARD
  0
DICTIONARYVAR
  5
2AB
102
{ACAD_REACTORS
330
2A8
102
}
330
2A8
100
DictionaryVariables
280
     0
  1
2
  0
DICTIONARYVAR
  5
2AA
102
{ACAD_REACTORS
330
2A8
102
}
330
2A8
100
DictionaryVariables
280
     0
  1
1
  0
DICTIONARYVAR
  5
2A9
102
{ACAD_REACTORS
330
2A8
102
}
330
2A8
100
DictionaryVariables
280
     0
  1
1
  0
DICTIONARY
  5
2F58
102
{ACAD_REACTORS
330
45
102
}
330
45
100
AcDbDictionary
281
     1
  0
DICTIONARY
  5
4A
102
{ACAD_REACTORS
330
45
102
}
330
45
100
AcDbDictionary
281
     1
  0
XRECORD
  5
40E0
102
{ACAD_REACTORS
330
45
102
}
330
45
100
AcDbXrecord
280
     1
 90
-1023410169
  0
DICTIONARY
  5
4324
330
1E
100
AcDbDictionary
280
     1
281
     1
  3
ADSK_XREC_LAYOUTTHUMBNAIL
360
4325
  0
XRECORD
  5
4325
102
{ACAD_REACTORS
330
4324
102
}
330
4324
100
AcDbXrecord
280
     1
310
28000000620000008C0000000100080000000000B036000000000000000000000001000000000000FFFFFF0000000000FFFFFF000000000000000000000000000000000000000000000000000000000000000000330000006600000099000000CC000000FF00000000330000333300006633000099330000CC330000FF3300
310
0000660000336600006666000099660000CC660000FF66000000990000339900006699000099990000CC990000FF99000000CC000033CC000066CC000099CC0000CCCC0000FFCC000000FF000033FF000066FF000099FF0000CCFF0000FFFF000000003300330033006600330099003300CC003300FF003300003333003333
310
33006633330099333300CC333300FF33330000663300336633006666330099663300CC663300FF66330000993300339933006699330099993300CC993300FF99330000CC330033CC330066CC330099CC3300CCCC3300FFCC330000FF330033FF330066FF330099FF3300CCFF3300FFFF330000006600330066006600660099
310
006600CC006600FF00660000336600333366006633660099336600CC336600FF33660000666600336666006666660099666600CC666600FF66660000996600339966006699660099996600CC996600FF99660000CC660033CC660066CC660099CC6600CCCC6600FFCC660000FF660033FF660066FF660099FF6600CCFF6600
310
FFFF660000009900330099006600990099009900CC009900FF00990000339900333399006633990099339900CC339900FF33990000669900336699006666990099669900CC669900FF66990000999900339999006699990099999900CC999900FF99990000CC990033CC990066CC990099CC9900CCCC9900FFCC990000FF99
310
0033FF990066FF990099FF9900CCFF9900FFFF99000000CC003300CC006600CC009900CC00CC00CC00FF00CC000033CC003333CC006633CC009933CC00CC33CC00FF33CC000066CC003366CC006666CC009966CC00CC66CC00FF66CC000099CC003399CC006699CC009999CC00CC99CC00FF99CC0000CCCC0033CCCC0066CC
310
CC0099CCCC00CCCCCC00FFCCCC0000FFCC0033FFCC0066FFCC0099FFCC00CCFFCC00FFFFCC000000FF003300FF006600FF009900FF00CC00FF00FF00FF000033FF003333FF006633FF009933FF00CC33FF00FF33FF000066FF003366FF006666FF009966FF00CC66FF00FF66FF000099FF003399FF006699FF009999FF00CC
310
99FF00FF99FF0000CCFF0033CCFF0066CCFF0099CCFF00CCCCFF00FFCCFF0000FFFF0033FFFF0066FFFF0099FFFF00CCFFFF00FFFFFF00000000000D0D0D001A1A1A00282828003535350043434300505050005D5D5D006B6B6B00787878008686860093939300A1A1A100AEAEAE00BBBBBB00C9C9C900D6D6D600E4E4E400
310
F1F1F100FFFFFF0000000000000000000000000000000000000000000000000000000000000000000000000000000000F5F5F5F5F5F5F5F5F5F5F5F5F5F5F5F5F5F5F5F5F5F5F5F5F5F5F5F5F5F5F5F5F5F5F5F5F5F5F5F5F5F5F5F5F5F5F5F5F5F5F5F5F5F5F5F5F5F5F5F5F5F5F5F5F5F5F5F5F5F5F5F5F5F5F5F5F5F5F5
310
F5F5F5F5F5F5F5F5F5F5F5F5F5F5F5F5F5F5F5E2E2F5F5F5F5F5F5F5F5F5F5F5F5F5F5F5F5F5F5F5F5F5F5F5F5F5F5F5F5F5F5F5F5F5F5F5F5F5F5F5F5F5F5F5F5F5F5F5F5F5F5F5F5F5F5F5F5F5F5F5F5F5F5F5F5F5F5F5F5F5F5F5F5F5F5F5F5F5F5F5F5F5F5F5F5F5F5F5F5F5F5F5F5F5F5F5F5F5F5F5F5F5F5F5F5F5F5
310
F5F5F5F5F5F5F5F5F5F5F5F5F5F5F5F5F5F5F5F5F5F5F5F5F5F5F5F5F5F5F5F5F5F5F5F5F5F5F5F5F5F5F5F5F5F5F5F5F5F5F5F5F5F5F5F5F5F5F5F5F5F5F5F5F5F5F5F5F5F5F5F5F5F5F5F5F5F5F5F5F5F5F5F5F5F5F5F5F5F5F5F5F5F5F5F5F5F5F5F5F5F5F5F5F5F5F5F5F5F5F5F5F5F5F5F5F5F5F5F5F5F5F5F5F5F5F5
310
F5F5F5F5F5F5F5F5F5F5F5F5F5F5F5F5F5F5F5F5F5F5F5F5F5F5F5F5F5F5F5F5F5F5F5F5F5F5F5F5F5F5F5F5F5F5F5F5F5F5F5F5F5F5F5F5F5F5F5F5F5F5F5F5F5E2E2F5F5F5F5F5F5F5F5F5F5F5F5F5F5F5F5F5F5F5F5F5F5F5F5F5F5F5F5F5F5F5F5F5F5F5F5F5F5F5F5F5F5F5F5F5F5F5F5F5F5F5F5F5F5F5F5F5F5F5F5
310
F5F5F5F5F5F5F5F5F5F5F5F5F5F5F5F5F5F5F5F5F5F5F5F5F5F5F5F5F5F5F5F5F5F5F5F5F5F5E2E2F5F5F5F5F5F5F5F5F5F5F5F5F5F5F5F5F5F5F5F5F5F5F5F5F5F5F5F5F5F5F5F5F5F5F5F5F5F5F5F5F5F5F5F5F5F5F5F5F5F5F5F5F5F5F5F5F5F5F5F5F5F5F5F5F5F5F5F5F5F5F5F5F5F5F5F5F5F5F5F5F5F5F5F5F5F5F5
310
F5F5F5F5F5F5F5F5F5F5F5F5F5F5F5F5F5F5F5F5F5F5F5F5F5F5F5F5F5F5F5F5F5F5F5F5F5F5F5F5F5F5F5F5F5F5F5F5F5F5F5F5F5F5F5F5F5F5F5F5F5F5F5F5F5F5F5F5F5F5F5F5F5F5F5F5F5F5F5F5F5F5F5F5F5F5F5F5F5F5F5F5F5F5F5F5F5F5F5F5F5F5F5F5F5F5F5F5F5F5F5F5F5F5F5F5F5F5F5F5F5F5F5F5F5F5F5
310
F5F5F5F5F5F5F5F5F5F5F5F5F5F5F5F5F5F5F5F5F5F5F5F5F5F5F5F5F5F5F5F5F5F5F5F5F5F5F5F5F5F5F5F5F5F5F5F5F5F5F5F5F5F5F5F5F5F5F5F5F5F5F5F5F5F5F5F5F5F5F5F5F5F5F5F5F5F5F5F5F5F5F5F5F5F5F5F5F5F5F5F5F5F5F5F5F5F5F5F5F5F5F5F5F5F5F5F5F5F5F5F5F5F5F5F5F5F5F5F5F5F5F5F5F5F5F5
310
F5F5F5F5F5F5F5F5F5F5F5F5F5F5F5F5F5F5F5F5F5F5F5F5F5F5F5F5F5F5F5F5F5F5F5F5F5F5F5F5F5F5F5F5F5F5F5F5F5F5F5F5F5F5F5F5F5F5F5F5F5F5F5F5F5F5F5F5F5F5F5F5F5F5F5F5F5F5F5F5F5F5F5F5F5F5F5F5F5F5F5F5F5F5F5F5F5F5F5F5F5F5F5F5F5F5F5F5F5F5F5F5F5F5F5F5F5F5F5F5F5F5F5F5F5F5F5
310
F5F5F5F5F5F5F5F5F5F5F5F5F5F5F5F5F5F5F5F5F5F5F5F5F5F5F5F5F5F56969F5F5F5F5F5F5F5F5F5F5F5F5F5F5F5F5F5F5F5F5F5F5F5F5F5F5F5F5F5F5F5F5F5F5F5F5F5F5F5F5F5F5F5F5F5F5F5F5F5F5F5F5F5F5F5F5F5F5F5F5F5F5F5F5F5F5F5F5F5F5F5F5F5F5F5F5F5F5F5F5F5F5F5F5F5F5F5F5F5F5F5F5F5F5F5
310
F5F5F5F5F5F5F5F5F5F5F5F5F5F5F5F5F5F5F5F5F5F5F5F5F5F5F5F5F5F5F5F5F5F5F5F5F5F5F5F5F5F5F5F5F5F5F5F5F5F5F5F5F5F5F5F5F5F5F5F5F5F5F5F5F5F5F5F5F5F5F5F5F5F5F5F5F5F5F5F5F5F5F5F5F5F5F5F5F5F5F5F5F5F5F5F5F5F5F5F5F5F5F5E2E2F5F5F5F5F5F5F5F5F5F5F5F5F5F5F5F5F5F5F5F5F5F5
310
F5F5F5F5F5F5F5F5F5F5F5F5F5F5F5F5F5F5F5F5F5F5F5F5F5F5F5F5F5F5F5F5F5F5F5F5F5F5F5F5F5F5F5F5F5F5F5F5F5F5F5F5F5F5F5F5F5F5F5F5F5F5F5F5F5F5F5F5F5F5F5F5F5F5F5F5BEBEF5F5F5F5F5F5F5F5F5F5F5F5F5F5F5F5F5F5F5F5F5F5F5F5F5F5F5F5F5F5F5F5F5F5F5F5F5F5F5F5F5F5F5F5F5F5F5F5F5
310
F5F5F5F5F5F5F5F5F5F5F5F5F5F5F5F5F5F5F5F5F5F5F5F5F5F5F5F5F5F5F5F5F5F5F5F5F5F5F5F5F5F5F5F5F5F5F5F5F5BEBEF5F5F5F5F5F5F5F5F5F5F5F5F5F5F5F5F5F5F5F5F5F5F5F5F5F5F5F5F5F5F5F5F5F5F5F5F5F5F5F5F5F5F5F5F5F5F5F5F5F5F5F5F5F5F5F5F5F5F5F5F5F5F5F5F5F5F5F5F5F5F5F5F5F5F5F5
310
F5F5F5F5F5F5F5F5F5F5F5F5F5F5F5F5F5F5F5F5F5F5F5F5F5F5F5F5F5F5F5F5F5F5F5F5F5F5F5F5F5F5F5F5F5F5F5F5F5F5F5F5F5F5F5F5F5F5F5F5F5F5F5F5F5F5F5F5F5F5F5F5F5F5F5F5F5F5F5F5F5F5F5F5F5F5F5F5F5F5F5F5F5F5F5F5F5F5F5F5F5F5F5F5F5F5F5F5F5F5F5F5F5F5F5F5F5F5F5F5F5F5F5F5F5F5F5
310
F5F5F5F5F5F5F5F5F5F5F5F5F5F5F5F5F5F5F5F5F5F5F5F5F5F5F5F5F5F5F5F5F5F5F5F5F5F5F5F5F5F5F5F5F5F5F5F5F5F5F5F5F5F5F5F5F5F5F5F5F5F5F5F5F5F5F5F5F5F5F5F5F5F5F5F5F5F5F5F5F5F5F5F5F5F5F5F5F5F5F5F5F5F5F5F5F5F5F5F5F5F5F5F5F5F5F5F5F5F5F5F5F5F5F5F5F5F5F5F5F5F5F5F5F5F5F5
310
F5F5F5F5F5F5F5F5F5F5F5F5F5F5F5F5F5F5F5F5F5F5F5F5F5F5F5F5F5F5F5F5F5F5F5F5F5F5F5F5F5F5F5F5F5F5F5F5F5F5F5F5F5F5F5F5F5F5F5F5F5F5F5F5F5F5F5F5F5F5F5F5F5F5F5F5F5F5F5F5F5F5F5F5F5F5F5F5F5F5F5F5F5F5F5F5F5F5F5F5F5F5F5F5F5F5F5F5F5F5F5F5F5F5F5F5F5F5F5F5F5F5F5F5F5F5F5
310
F5F5F5F5F5F5F5F5F5F5F5F5F5F5F5F5F5F5F5F5F5F5F5F5F5F5F5F5F5F5F5F5F5F5F5F5F5F5F5F5F5E2E2F5F5F5F5F5F5F5F5F5F5F5F5F5F5F5F5F5F5F5F5F5F5F5F5F5F5F5F5F5F5F5F5F5F5F5F5F5F5F5F5F5F5F5F5F5F5F5F5F5F5F5F5F5F5F5F5F5F5F5F5F5F5F5F5F5F5F5F5F5F5F5F5F5F5F5F5F5F5F5F5F5F5F5F5
310
F5F5F5F5F5F5F5F5F5F5F5F5F5F5F5F5F5F5F5F5F5F5F5F5F5F5F5F5F5F5F5F5F5F5F5F5F5F5F5F5F5F5F5F5F5F5F5F5F5F5F5F5F5F5F5F5F5F5F5F5F5F5F5F5F5F5F5F5F5F5F5F5F5F5F5F5F5F5F5F5F5F5F5F5F5F5F5F5F5F5F5F5F5F5F5F5F5F5F5F5F5F5F5F5F5F5F5F5F5F5F5F5F5F5E2E2F5F5F5F5F5F5F5F5F5F5F5
310
F5F5F5F5F5F5F5F5F5F5F5F5F5F5F5F5F5F5F5F5F5F5F5F5F5F5F5F5F5F5F5F5F5F5F5F5F5F5F5F5F5F5F5F5F5F5F5F5F5F5F5F5F5F5F5F5F5F5F5F5F5F5F5F5F5F5F5F5F5F5F5F5F5F5F5F5F5F5F5F5F5F5F5F5F5F5F5F5F5F5F5F5F5F5F5F5F5F5F5F5F5F5F5F5F5F5F5F5F5F5F5F5F5F5F5F5F5F5F5F5F5F5F5F5F5F5F5
310
F5F5F5F5F5F5F5F5F5F5F5F5F5F5F5F5F5F5F5F5F5F5F5F5F5F5F5F5F5F5F5F5F5F5F5F5F5F5F5F5F5F5F5F5F5F5F5F5F5F5F5F5F5F5F5F5F5F5F5F5E2F5F5F5F5F5F5F5F5F5F5F5F5F5F5F5F5F5F5F5F5F5F5F5F5F5F5F5F5F5F5F5F5F5F5F5F5F5F5F5F5F5F5F5F5F5F5F5F5F5F5F5F5F5F5F5F5F5F5F5F5F5F5F5F5F5F5
310
F5F5F5F5F5F5F5F5F5F5F5F5F5F5F5F5F5F5F5F5F5F5F5F5F5F5F5F5F5F5F5F5F5F5F5F5F5F5F5F5F5F5F5F5F5F5F5F5F5F5F5F5F5F5F5F5F5F5F5F5F5F5F5F5F5F5F5F5F5F5F5F5F5F5F5F5F5F5F5F5F5F5F5F5F5F5F5F5F5F5F5F5F5F5F5F5F5F5F5F5F5F5F5F5F5F5F5F5F5F5F5F5F5F5F5F5F5F5F5F5F5F5F5F5F5F5F5
310
F5F5F5F5F5F5F5F5F5F5F5F5F5F5F5F5F5F5F5F5F5F5F5F5F5F5F5F5F5F5F5F5F5F5F5F5F5F5F5F5F5F5F5F5F5F5F5F5F5F5F5F5F5F5F5F5F5F5F5F5F5F5F5F5F5F5F5F5F5F5F5F5F5F5F5F5F5F5F5F5F5F5F5F5F5F5F5F5F5F5F5F5F5F5F5F5F5F5F5F5F5F5F5F5F5F5F5F5F5F5F5F5F5F5F5F5F5F5F5F5F5F5F5F5F5F5F5
310
F5F5F5F5F5F5F5F5F5F5F5F5F5F5F5F5F5F5F5F5F5F5F5F5F5F5F5F5F5F5F5F5F5F5F5F5F5F5F5F5F5F5F5F5F5F5F5F5F5F5F5F5F5F5F5F5F5F5F5F5F5F5F5F5F5F5F5F5F5F5F5F5F5F5F5F5F5F5F5F5F5F5F5F5F5F5F5F5F5F5F5F5F5F5F5F5F5F5F5F5F5F5F5F5F5F5F5F5F5F5F5F5F5F5F5F5F5F5F5F5F5F5F5F5F5F5F5
310
F5F5F5F5F5F5F5F5F5F5F5F5F5F5F5F5F5F5F5F5F5F5F5F5F5F5F5F5F5F5F5F5F5F5F5F5F5F5F5F5F5F5F5F5F5F5F5F5F5F5F5F5F5F5F5F5F5F5F5F5F5F5F5F5F5F5F5F5F5F5F5F5F5F5F5F5F5F5F5F5F5F5F5F5F5F5F5F5F5F5F5F5F5F5F5F5F5F5F5F5F5F5F5F5F5F5F5F5F5F5F5F5F5F5F5F5F5F5F5F5F5F5F5F5F5F5F5
310
F5F5F5F5F5F5F5F5F5F5F5F5F5F5F5F5F5F5F5F5F5F5F5F5F5F5F5F5F5F5F5F5F5F5F5F5F5F5F5F5F5F5F5F5F5F5F5F5F5F5F5F5F5F5F5F5F5F5F5F5F5F5F5F5F5F5F5F5F5F5F5F5F5F5F5F5F5F5F5F5F5F5F5F5F5F5F5F5F5F5F5F5F5F5F5F5F5F5F5F5F5F5F5F5F5F5F5F5F5F5F5F5F5F5F5F5F5F5F5F5F5F5F5F5F5F5F5
310
F5F5F5F5F5F5F5F5F5F5F5F5F5F5F5F5F5F5F5F5F5F5F5F5F5F5F5F5F5F5F5F5F5F5F5F5F5F5F5F5F5F5F5F5F5F5F5F5F5F5F5F5F5F5F5F5F5F5F5F5F5F5F5F5F5F5F5F5F5F5F5F5F5F5F5F5F5F5F5F5F5F5F5F5F5F5F5F5F5F5F5F5F5F5F5F5F5F5F5F5F5F5F5F5F5F5F5F5F5F5F5F5F5F5F5F5F5F5F5F5F5F5F5F5F5F5F5
310
F5F5F5F5F5F5F5F5F5F5F5F5F5F5F5F5F5F5F5F5F5F5F5F5F5F5F5F5F5F5F5F5F5F5F5F5F5F5F5F5F5F5F5F5F5F5F5F5F5F5F5F5F5F5F5F5F5F5F5F5F5F5F5F5F5F5F5F5F5F5F5F5F5F5F5F5F5F5F5F5F5F5F5F5F5F5F5F5F5F5F5F5F5F5F5F5F5F5F5F5F5F5F5F5F5F5F5F5F5F5F5F5F5F5F5F5F5F5F5F5F5F5F5F5F5F5F5
310
F5F5F5F5F5F5F5F5F5F5F5F5F5F5F5F5F5F5F5F5F5F5F5F5F5F5F5F5F5F5F5F5F5F5F5F5F5F5F5F5F5F5F5F5F5F5F5F5F5F5F5F5F5F5F5F5F5F5F5F5F5F5F5F5F5F5F5F5F5F5F5F5F5F5F5F5F5F5F5F5F5F5F5F5F5F5F5F5F5F5F5F5F5F5F5F5F5F5F5F5F5F5F5F5F5F5F5F5F5F5F5F5F5F5F5F5F5F5F5F5F5F5F5F5F5F5F5
310
F5F5F5F5F5F5F5F5F5F5F5F5F5F5F5F5F5F5F5F5F5F5F5F5F5F5F5F5F5F5F5F5F5F5F5F5F5F5F5F5F5F5F5F5F5F5F5F5F5F5F5F5F5F5F5F5F5F5F5F5F5F5F5F5F5F5F5F5F5F5F5F5F5F5F5F5F5F5F5F5F5F5F5F5F5F5F5F5F5F5F5F5F5F5F5F5F5F5F5F5F5F5F5F5F5F5F5F5F5F5F5F5F5F5F5F5F5F5F5F5F5F5F5F5F5F5F5
310
F5F5F5F5F5F5F5F5F5F5F5F5F5F5F5F5F5F5F5F5F5F5F5F5F5F5F5F5F5F5F5F5F5F5F5F5F5F5F5F5F5F5F5F5F5F5F5F5F5F5F5F5F5F5F5F5F5F5F5F5F5F5F5F5F5F5F5F5F5F5F5F5F5F5F5F5F5F5F5F5F5F5F5F5F5F5F5F5F5F5F5F5F5F5F5F5F5F5F5F5F5F5F5F5F5F5F5F5F5F5F5F5F5F5F5F5F5F5F5F5F5F5F5F5F5F5F5
310
F5F5F5F5F5F5F5F5F5F5F5F5F5F5F5F5F5F5F5F5F5F5F5F5F5F5F5F5F5F5F5F5F5F5F5F5F5F5F5F5F5F5F5F5F5F5F5F5F5F5F5F5F5F5F5F5F5F5F5F5F5F5F5F5F5F5F5F5F5F5F5F5F5F5F5F5F5F5F5F5F5F5F5F5F5F5F5F5F5F5F5F5F5F5F5F5F5F5F5F5F5F5F5F5F5F5F5F5F5F5F5F5F5F5F5F5F5F5F5F5F5F5F5F5F5F5F5
310
F5F5F5F5F5F5F5F5F5F5F5F5F5F5F5F5F5F5F5F5F5F5F5F5F5F5F5F5F5F5F5F5F5F5F5F5F5F5F5F5F5F5F5F5F5F5F5F5F5F5F5F5F5F5F5F5F5F5F5F5F5F5F5F5F5F5F5F5F5F5F5F5F5F5F5F5F5F5F5F5F5F5F5F5F5F5F5F5F5F5F5F5F5F5F5F5F5F5F5F5F5F5F5F5F5F5F5F5F5F5F5F5F5F5F5F5F5F5F5F5F5F5F5F5F5F5F5
310
F5F5F5F5F5F5F5F5F50F0FF5F5F5F5F5F5F5F5F5F5F5F5F5F5F5F5F5F5F5F5F5F5F5F5F5F5F5F5F5F5F5F5F5F5F5F5F5F5F5F5F5F5F5F5F5F5F5F5F5F5F5F5F5F5F5F5F5F5F5F5F5F5F5F5F5F5F5F5F5F5F5F5F5F5F5F5F5F5F5F5F5F5F5F5F5F5F5F5F5F5F5F5F5F5F5F5F5F5F5F5F5F5F5F5F5F5F5F5F5F5F5F5F5F5F5F5
310
F5F5F5F5F5F5F5F5F5F5F5F5F5F5F5F5F5F5F5F5F5F5F5F5F5F5F5F5F5F5F5F5F5F5F5F5F5F5F5F5F5F5F5F5F5F5F5F5F5F5F5F5F5F5F5F5F5F5F5F5F5F5F5F5F5F5F5F5F5F5F5F5F5F5F5F5F5F5F5F5F5F5F5F5F5F5F5F5F5F5F5F5F5F5F5F5F5F5F5F5F5F5F5F5F5F5F5F5F5F5F5F5F5F5F5F5F5F5F5F5F5F5F5F5F5F5F5
310
F5F5F5F5F5F5F5F5F5F5F5F5F5F5F5F5F5F5F5F5F5F5F5F5F5F5F5F5F5F5F5F5F5F5F5F5F5F5F5F5F5F5F5F5F5F5F5F5F5F5F5F5F5F5F5F5F5F5F5F5F5F5F5F5F5F5F5F5F5F5F5F5F5F5F5F5F5F5F5F5F5F5F5F5F5F5F5F5F5F5F5F5F5F5F5F5F5F5F5F5F5F5F5F5F5F5F5F5F5F5F5F5F5F5F5F5F5F5F5F5F5F5F5F5F5F5F5
310
F5F5F5F5F5F5F5F5F5F5F5F5F5F5F5F5F5F5F5F5F5F5F5F5F5F5F5F5F5F5F5F5F5F5F5F5F5F5F5F5F5F5F5F5F5F5F5F5F5F5F5F5F5F5F5F5F5F5F5F5F5F5F5F5F5F5F5F5F5F5F5F5F5F5F5F5F5F5F5F5F5F5F5F5F5F5F5F5F5F5F5F5F5F5F5F5F5F5F5F5F5F5F5F5F5F5F5F5F5F5F5F5F5F5F5F5F5F5F5F5F5F5F5F5F5F5F5
310
F50F0FF5F5F5F5F5F5F5F5F5F5F5F5F5F5F5F5F5F5F5F5F5F5F5F5F5F5F5F5F5F5F5F5F5F5F5F5F5F5F5F5F5F5F5F5F5F5F5F5F5F5F5F5F5F5F5F5F5F5F5F5F5F5F5F5F5F5F5F5F5F5F5F5F5F5F5F5F5F5F5F5F5F5F5F5F5F5F5F5F5F5F5F5F5F5F5F5F5F5F5F5F5F5F5F5F5F5F5F5F5F5F5F5F5F5F5F5F5F5F5F5F5F5F5F5
310
F5F5F5F5F5F5F5F5F5F5F5F5F5F5F5F5F5F5F5F5F5F5F5F5F5F5F5F5F5F5F5F5F5F5F5F5F5F5F5F5F5F5F5F5F5F5F5F5F5F5F5F5F5F5F5F5F5F5F5F5F5F5F5F5F5F5F5F5F5F5F5F5F5F5F5F5F5F5F5F5F5F5F5F5F5F5F5F5F5F5F5F5F5F5F5F5F5F5F5F5F5F5F5F5F5F5F5F5F5F5F5F5F5F5F5F5F5F5F5F5F5F5F5F5F5F5F5
310
F5F5F5F5F5F5F5F5F5F5F5F5F5F5F5F5F5F5F5F5F5F5F5F5F5F5F5F5F5F5F5F5F5F5F5F5F5F5F5F5F5F5F5F5F5F5F5F5F5F5F5F5F5F5F5F5F5F5F5F5F5F5F5F5F5F5F5F5F5F5F5F5F5F5F5F5F5F5F5F5F5F5F5F5F5F5F5F5F5F5F5F5F5F5F5F5F5F5F5F5F5F5F5F5F5F5F5F5F5F5F5F5F5F5F5F5F5F5F5F5F5F5F5F5F5F5F5
310
F5F5F5F5F5F5F5F5F5F5F5F5F5F5F5F5F5F5F5F50F0FF5F5F5F5F5F5F5F5F5F5F5F5F5F5F5F5F5F5F5F5F5F5F5F5F5F5F5F5F5F5F5F5F5F5F5F5F5F5F5F5F5F5F5F5F5F5F5F5F5F5F5F5F5F5F5F5F5F5F5F5F5F5F5F5F5F5F5F5F5F5F5F5F5F5F5F5F5F5F5F5F5F5F5F5F5F5F5F5F5F5F5F5F5F5F5F5F5F5F5F5F5F5F5F5F5
310
F5F5F5F5F5F5F5F5F5F5F5F5F5F5F5F5F5F5F5F5F5F5F5F5F5F5F5F5F5F5F5F5F5F5F5F5F5F5F5F5F5F5F5F5F5F5F5F5F5F5F5F5F5F5F5F5F5F5F5F5F5F5F5F5F5F5F5F5F5F5F5F5F5F5F5F5F5F5F5F5F5F5F5F5F5F5F5F5F5F5F5F5F5F5F5F5F5F5F5F5F5F5F5F5F5F5F5F5F5F5F5F5F5F5F5F5F5F5F5F5F5F5F5F5F5F5F5
310
F5F5F5F5F5F5F5F5F5F5F5F5F5F5F5F5F5F5F5F5F5F5F5F5F5F5F5F5F5F5F5F5F5F5F5F5F5F5F5F5F5F5F5F5F5F5F5F5F5F5F5F5F5F5F5F5F5F5F5F5F5F5F5F5F5F50F0FF5F5F5F5F5F5F5F5F5F5F5F5F5F5F5F5F5F5F5F5F5F5F5F5F5F5F5F5F5F5F5F5F5F5F5F5F5F5F5F5F5F5F5F5F5F5F5F5F5F5F5F5F5F5F5F5F5F5F5
310
F5F5F5F5F5F5F5F5F5F5F5F5F5F5F5F5F5F5F5F5F5F5F5F5F5F5F5F5F5F5F5F5F5F5F5F5F5F5F5F5F5F5F5F5F5F5F5F5F5F5F5F5F5F5F5F5F5F5F5F5F5F5F5F5F5F5F5F5F5F5F5F5F5F5F5F5F5F5F5F5F5F5F5F5F5F5F5F5F5F5F5F5F5F5F5F5F5F5F5F5F5F5F5F5F5F5F5F5F5F5F5F5F5F5F5F5F5F5F5F5F5F5F5F5F5F5F5
310
F5F5F5F5F5F5F5F5F5F5F5F50F0FF5F5F5F5F5F5F5F5F5F5F5F5F5F5F5F5F5F5F5F5F5F5F5F5F5F5F5F5F5F5F5F5F5F5F5F5F5F5F5F5F5F5F5F5F5F5F5F5F5F5F5F5F5F5F5F5F5F5F5F5F5F5F5F5F5F5F5F5F5F5F5F5F5F5F5F5F5F5F5F5F5F5F5F5F5F5F5F5F5F5F5F5F5F5F5F5F5F5F5F5F5F5F5F5F5F5F5F5F5F5F5F5F5
310
F5F5F5F5F5F5F5F5F5F5F5F5F5F5F5F5F5F5F5F5F5F5F5F5F5F5F5F5F5F5F5F5F5F5F5F5F5F5F5F5F5F5F5F5F5F5F5F5F5F5F5F5F5F5F5F5F5F5F5F5F5F5F5F5F5F5F5F5F5F5F5F5F5F5F5F5F5F5F5F5F5F5F5F5F5F5F5F5F5F5F5F5F5F5F5F5F5F5F5F5F5F5F5F5F5F5F5F5F5F5F5F5F5F5F5F5F5F5F5F5F5F5F5F5F5F5F5
310
F5F5F5F5F5F5F5F5F5F5F5F5F5F5F5F5F5F5F5F5F5F5F5F5F5F5F5F5F5F5F5F5F5F5F5F5F5F5F5F5F5F5F5F5F5F5F5F5F5F5F5F5F5F5F5F5F5F5F5F5F5F5F5F5F5F5F5F5F5F5F5F5F5F5F5F5F5F5F5F5F5F5F5F5F5F5F5F5F5F5F5F5F5F5F5F5F5F5F5F5F5F5F5F5F5F5F5F5F5F5F5F5F5F5F5F5F5F5F5F5F5F5F5F5F5F5F5
310
F5F5F5F5F5F5F5F5F5F5F5F5F5F5F5F5F5F5F5F5F5F5F5F5F5F5F5F5F5F5F5F5F5F5F5F5F5F5F5F5F5F5F5F5F5F5F5F5F5F5F5F5F5F5F5F5F5F5F5F5F5F5F5F5F5F5F5F5F5F5F5F5F5F5F5F5F5F5F5F5F5F5F5F5F5F5F5F5F5F5F5F5F5F5F5F5F5F5F5F5F5F5F5F5F5F5F5F5F5F5F5F5F5F5F5F5F5F5F5F5F5F5F5F5F5F5F5
310
F5F5F5F5F5F5F5F5F5F5F5F5F5F5F5F5F5F5F5F5F5F5F5F5F5F5F5F5F5F5F5F5F5F5F5F5F5F5F5F5F5F5F5F5F5F5F5F5F5F5F5F5F5F5F5F5F5F5F5F5F5F5F5F5F5F5F5F5F5F5F5F5F5F5F5F5F5F5F5F5F5F5F5F5F5F5F5F5F5F5F5F5F5F5F5F5F5F5F5F5F5F5F5F5F5F5F5F5F5F5F5F5F5F5F5F5F5F5F5F5F5F5F5F5F5F5F5
310
F5F5F5F5F5F5F5F5F5F5F5F5F5F5F5F5F5F5F5F5F5F5F5F5F5F5F5F5F5F5F5F5F5F5F5F5F5F5F5F5F5F5F5F5F5F5F5F5F5F5F5F5F5F5F5F5F5F5F5F5F5F5F5F5F5F5F5F5F5F5F5F5F5F5F5F5F5F5F5F5F5F5F5F5F5F5F5F5F5F5F5F5F5F5F5F5F5F5F5F5F5F5F5F5F5F5F5F5F5F5F5F5F5F5F5F5F5F5F5F5F5F5F5F5F5F5F5
310
F5F5F5F5F5F5F5F5F5F5F5F5F5F5F5F5F5F5F5F5F5F5F5F5F5F5F5F5F5F5F5F5F5F5F5F5F5F5F5F5F5F5F5F5F5F5F5F5F5F5F5F5F5F5F5F5F5F5F5F5F5F5F5F5F5F5F5F5F5F5F5F5F5F5F5F5F5F5F5F5F5F5F5F5F5F5F5F5F5F5F5F5F5F5F5F5F5F5F5F5F5F5F5F5F5F5F5F5F5F5F5F5F5F5F5F5F5F5F5F5F5F5F5F5F5F5F5
310
F5F5F5F5F5F5F5F5F5F5F5F5F5F5F5F5F5F5F5F5F5F5F5F5F5F5F5F5F5F5F5F5F5F5F5F5F5F5F5F5F5F5F5F5F5F5F5F5F5F5F5F5F5F5F5F5F5F5F5F5F5F5F5F5F5F5F5F5F5F5F5F5F5F5F5F5F5F5F5F5F5F5F5F5F5F5F5F5F5F5F5F5F5F5F5F5F5F5F5F5F5F5F5F5F5F5F5F5F5F5F5F5F5F5F5F5F5F5F5F5F5F5F5F5F5F5F5
310
F5F5F5F5F5F5F5F5F5F5F5F5F5F5F5F5F5F5F5F5F5F5F5F5F5F5F5F5F5F5F5F5F5F5F5F5F5F5F5F5F5F5F5F5F5F5F5F5F5F5F5F5F5F5F5F5F5F5F5F5F5F5F5F5F5F5F5F5F5F5F5F5F5F5F5F5F5F5F5F5F5F5F5F5F5F5F5F5F5F5F5F5F5F5F5F50FF5F5F5F5F5F5F5F5F5F5F5F5F5F5F5F5F5F5F5F5F5F5F5F5F5F5F5F5F5F5
310
F5F5F5F5F5F5F5F5F5F5F5F5F5F5F5F5F5F5F5F5F5F5F5F5F5F5F5F5F5F5F5F5F5F5F5F5F5F5F5F5F5F5F5F5F5F5F5F5F5F5F5F5F5F5F5F5F5F5F5F5F5F5F5F5F5F5F5F5F5F5F5F5F5F5F5F5F5F5F5F5F5F5F5F5F5F5F5F5F5F5F5F5F5F5F5F5F5F5F5F5F5F5F5F5F5F5F5F5F5F5F5F5F5F5F5F5F5F5F5F5F5F5F5F5F5F5F5
310
F5F5F5F5F5F5F5F5F5F5F5F5F5F5F5F5F5F5F5F5F5F5F5F5F5F5F5F5F5F5F5F5F5F5F5F5F5F5F5F5F5F5F5F5F5F5F5F5F5F5F5F5F5F5F5F5F5F5F5F5F5F5F5F5F5F5F5F5F5F5F5F5F5F5F5F5F5F5F5F5F5F5F5F5F5F5F5F5F5F5F5F5F5F5F5F5F5F5F5F5F5F5F5F5F5F5F5F5F5F5F5F5F5F5F5F5F5F5F5F5F5F5F5F5F5F5F5
310
F5F5F5F5F5F5F5F5F5F5F5F5F5F5F5F5F5F5F5F5F5F5F5F5F5F5F5F5F5F5F5F5F5F5F5F5F5F5F5F5F5F5F5F5F5F5F5F5F5F5F5F5F5F5F5F5F5F5F5F5F5F5F5F5F5F5F5F5F5F5F5F5F5F5F5F5F5F5F5F5F5F5F5F5F5F5F5F5F5F5F5F5F5F5F5F5F5F5F5F5F5F5F5F5F5F5F5F5F5F5F5F5F5F5F5F5F5F5F5F5F5F5F5F5F5F5F5
310
F5F5F5F5F5F5F5F5F5F5F5F5F5F5F5F5F5F5F5F5F5F5F5F5F5F5F5F5F5F5F5F5F5F5F5F5F5F5F5F5F5F5F5F5F5F5F5F5F5F5F5F5F5F5F5F5F5F5F5F5F5F5F5F5F5F5F5F5F5F5F5F5F5F5F5F5F5F5F5F5F5F5F5F5F5F5F5F5F5F5F5F5F5F5F5F5F5F5F5F5F5F5F5F5F5F5F5F5F5F5F5F5F5F5F5F5F5F5F5F5F5F5F5F5F5F5F5
310
F5F5F5F5F5F5F5F5F5F5F5F5F5F5F5F5F5F5F5F5F5F5F5F5F5F5F5F5F5F5F5F5F5F5F5F5F5F5F5F5F5F5F5F5F5F5F5F5F5F5F5F5F5F5F5F5F5F5F5F5F5F5F5F5F5F5F5F5F5F5F5F5F5F5F5F5F5F5F5F5F5F5F5F5F5F5F5F5F5F5F5F5F5F5F5F5F5F5F5F5F5F5F5F5F5F5F5F5F5F5F5F5F5F5F5F5F5F5F5F5F5F5F5F5F5F5F5
310
F5F5F5F5F5F5F5F5F5F5F5F5F5F5F5F5F5F5F5F5F5F5F5F5F5F5F5F5F5F5F5F5F5F5F5F5F5F5F5F5F5F5F5F5F5F5F5F5F5F5F5F5F5F5F5F5F5F5F5F5F5F5F5F5F5F5F5F5F5F5F5F5F5F5F5F5F5F5F5F5F5F5F5F5F5F5F5F5F5F5F5F5F5F5F5F5F5F5F5F5F5F5F5F5F5F5F5F5F5F5F5F5F5F5F5F5F5F5F5F5F5F5F5F5F5F5F5
310
F5F5F5F5F5F5F5F5F5F5F5F5F5F5F5F5F5F5F5F5F5F5F5F5F5F5F5F5F5F5F5F5F5F5F5F5F5F5F5F5F5F5F5F5F5F5F5F5F5F5F5F5F5F5F5F5F5F5F5F5F5F5F5F5F5F5F5F5F5F5F5F5F5F5F5F5F5F5F5F5F5F5F5F5F5F5F5F5F5F5F5F5F5F5F5F5F5F5F5F5F5F5F5F5F5F5F5E2E2F5F5F5F5F5F5F5F5F5F5F5F5F5F5F5F5F5F5
310
F5F5F5F5F5F5F5F5F5F5F5F5F5F5F5F5F5F5F5F5F5F5F5F5F5F5F5F5F5F5F5F5F5F5F5F5F5F5F5F5F5F5F5F5F5F5F5F5F5F5F5F5F5F5F5F5F5F5F5F5F5F5F5F5F5F5F5F5F5F5F5F5F5F5F5F5F5F5F5F5F5F5F5F5F5F5F5F5F5F5F5F5F5F5F5F5F5F5F5F5F5F5F5F5F5F5F5F5F5F5F5F5F5F5F5F5F5F5F5F5F5F5F5F5F5F5F5
310
F5F5F5F5F5F5F5F5F5F5F5F5F5F5F5F5F5F5F5F5F5F5F5F5F5F5F5F5F5F5F5F5F5F5F5F5F5F5F5F5F5F5F5F5F5F5F5F5F5F5F5F5F5F5F5F5F5F5F5F5F5F5F5F5F5F5F5F5F5F5F5F5F5F5F5F5F5F5F5F5F5F5F5F5F5F5F5F5F5F5F5F5F5F5F5F5F5F5F5F5F5F5F5F5F5F5F5F5F5F5F5F5F5F5F5F5F5F5F5F5F5F5F5F5F5F5F5
310
F5F5F5F5F5F5F5F5F5F5F5F5F5F5F5F5F5F5F5F5F5F5F5F5F5F5F5F5F5F5F5F5F5F5F5F5F5F5F5F5F5F5F5F5F5F5F5F5F5F5F5F5F5F5F5F5F5F5F5F5F5F5F5F5F5F5F5F5F5F5F5F5F5F5F5F5F5F5F5F5F5F5F5F5F5F5F5F5F5F5F5F5F5F5F5F5F5F5F5F5F5F5F5F5F5F5F5F5F5F5F5F5F5F5F5F5F5F5F5F5F5F5F5F5F5F5F5
310
F5F5F5F5F5F5F5F5F5F5F5F5F5F5F5F5F5F5F5F5F5F5F5F5F5F5F5F5F5F5F5F5F5F5F5F5F5F5F5F5F5F5F5F5F5F5F5F5F5F5F5F5F5F5F5F5F5F5F5F5F5F5F5F5F5F5F5F5F5F5F5F5F5F5F5F5F5F5F5F5F5F5F5F5F5F5F5F5F5F5F5F5F5F5F5F5F5F5F5F5F5F5F5F5F5F5F5F5F5F5F5F5F5F5F5F5F5F5F5F5F5F5F5F5F5F5F5
310
F5F5F5F5F5F5F5F5F5F5F5F5F5F5F5F5F5F5F5F5F5F5F5F5F5F5F5F5F5F5F5F5F5F5F5F5F5F5F5F5F5F5F5F5F5F5F5F5F5F5F5F5F5F5F5F5F5F5F5F5F5F5F5F5F5F5F5F5F5F5F5F5F5F5F5F5F5F5F5F5F5F5F5F5F5F5F5F5F5F5F5F5F5F5F5F5F5F5F5F5F5F5F5F5F5F5F5F5F5F5F5F5F5F5F5F5F5F5F5F5F5F5F5F5F5F5F5
310
F5F5F5F5F5F5F5F5F5F5F5F5F5F5F5F5F5F5F5F5F5F5F5F5F5F5F5F5F5F5F5F5F5F5F5F5F5F5F5F5F5F5F5F5F5F5F5F5F5F5F5F5F5F5F5F5F5F5F5F5F5F5F5F5F5F5F5F5F5F5F5F5F5F5F5F5F5F5F5F5F5F5F5F5F5F5F5F5F5F5F5F5F5F5F5F5F5F5F5F5F5F5F5F5F5F5F5F5F5F5F5F5F5F5F5F5F5F5F5F5F5F5F5F5F5F5F5
310
F5F5F5F5F5F5F5F5F5F5F5F5F5F5F5F5F5F5F5F5F5F5F5F5F5F5F5F5F5F5F5F5F5F5F5F5F5F5F5F5F5F5F5F5F5F5F5F5F5F5F5F5F5F5F5F5F5F5F5F5F5F5F5F5F5F5F5F5F5F5F5F5F5F5F5F5F5F5F5F5F5F5F5F5F5F5F5F5F5F5F5F5F5F5F5F5F5F5F5F5F5F5F5F5F5F5F5F5F5F5F5F5F5F5F5F5F5F5F5F5F5F5F5F5F5F5F5
310
F5F5F5F5F5F5F5F5F5F5F5F5F5F5F5F5F5F5F5F5F5F5F5F5F5F5F5F5F5F5F5F5F5F5F5F5F5F5F5F5F5F5F5F5F5F5F5F5F5F5F5F5F5F5F5F5F5F5F5F5F5F5F5F5F5F5F5F5F5F5F5F5F5F5F5F5F5F5F5F5F5F5F5F5F5F5F5F5F5F5F5F5F5F5F5F5F5F5F5F5F5F5F5F5F5F5F5F5F5F5F5F5F5F5F5F5F5F5F5F5F5F5F5F5F5F5F5
310
F5F5F5F5F5F5F5F5F5F5F5F5F5F5F5F5F5F5F5F5F5F5F5F5F5F5F5F5F5F5F5F5F5F5F5F5F5F5F5F5F5F5F5F5F5F5F5F5F5F5F5F5F5F5F5F5F5F5F5F5F5F5F5F5F50FF5F5F5F5F5F5F5F5F5F5F5F5F5F5F5F5F5F5F5F5F5F5F5F5F5F5F5F5F5F5F5F5F5F5F5F5F5F5F5F5F5F5F5F5F5F5F5F5F5F5F5F5F5F5F5F5F5F5F5F5F5
310
F5F5F5F5F5F5F5F5F5F5F5F5F5F5F5F5F5F5F5F5F5F5F5F5F5F5F5F5F5F5F5F5F5F5F5F5F50F0FF5F5F5F5F5F5F5F5F5F5F5F5F5F5F5F5F5F5F5F5F5F5F5F5F5F5F5F5F5F5F5F5F5F5F5F5F5F5F5F5F5F5F5F5F5F5F5F5F5F5F5F5F5F5F5F5F5F5F5F5F5F5F5F5F5F5F5F5F5F5F5F5F5F5F5F5F5F5F5F5F5F5F5F5F5F5F5F5
310
F5F5F5F5F5F5F5F5F5F5E2E2F5F5F5F5F5F5F5F5F5F5F5F5F5F5F5F5F5F5F5F5F5F5F5F5F5F5F5F5F5F5F5F5F5F5F5F5F5F5F5F5F5F5F5F5F5F5F5F5F5F5F5F5F5F5F5F5F5F5F5F5F5F5F5F5F5F5F5F5F5F5F5F5F5F5F5F5F5F5F5F5F5F5F5F5F5F5F5F5F5F5F5F5F5F5F5F5F5F52D2DF5F5F5F5F5F5F5F5F5F5F5F5F5F5F5
310
F5F5F5F5F5F5F5F5F5F5F5F5F5F5F5F5F5F5F5F5F5F5F5F5F5F5F5F5F5F5F5F5F5F5F5F5F5F5F5F5F5F5F5F5F5F5F5F5F5F5F5F5F5F5F5F5F5F5F5F5F5F5F5F5F5F5F5F5F5F5F5F5F5F5F5F5F5F5F5F5F5F5F5F5F5F5F5F5F5F5F5F5F5F5F5F5F5F5F5F5F5F5F5F5F5F5F5F5F5F5F5F5F5F5F5F5F5F5F5F5F5F5F5F5F5F5F5
310
F5F5F5F5F5F5F5F5F5F5F5F5F5F5F5F5F5F5F5F5F5F5F5F5F5F5F5F5F5F5F5F5F5F5F5F5F5F5F5F5F5F5F5F5F5F5F5F5F5F5F5F5F5F5F5F5F5F5F5F5F5F5F5F5F5F5F5F5F5F5F5F5F5F5F5F5F5F5F5F5F5F5F5F5F5F5F5F5F5F5F5F5F5F5F5F5F5F5F5F5F5F5F5F5F5F5F5F5F5F5F5F5F5F5F5F5F5F5F5F5F5F5F5F5F5F5F5
310
F5F5F5F5F5F5F5F5F5F5F5F5F5F5F5F5F5F5F5F5F5F5F5F5F5F5F5F5F5F5F5F5F5F5F5F5F5F5F5F5F5F5F5F5F5F5F5F5F5F5F5F5F5F5F5F5F5F5F5F5F5F5F5F5F5F5F5F5F5F5F5F5F5F5F5F5F5F5F5F5F5F5F5F5F5F5F5F5F5F5F5F5F5F5F5F5F5F5F5F5F5F5F5F5F5F5F5F5F5F5F5F5F5F5F5F5F5F5F5F5F5F5F5F5F5F5F5
310
F5F5F5F5F5F5F5F5F5F5F5F5F5F5F5F5F5F5F5F5F5F5F5F5F5F5F5F5F5F5F5F5F5F5F5F5F5F5F5F5F5F5F5F5F5F5F5F5F5F5F5F5F5F5F5F5F5F5F5F5F5F5F5F5F5F5F5F5F5F5F5F5F5F5F5F5F5F5F5F5F5F5F5F5F5F5F5F5F5F5F5F5F5F5F5F5F5F5F5F5F5F5F5F5F5F5F5F5F5F5F5F5F5F5F5F5F5F5F5F5F5F5F5F5F5F5F5
310
F5F5F5F5F5F5F5F5F5F5F5F5F5F5F5F5F5F5F5F5F5F5F5F5F5F5F5F5F5F5F5F5F5F5F5F5F5F5F5F5F5F5F5F5F5F5F5F5F5F5F5F5F5F5F5F5F5F5F5F5F5F5F5F5F5F5F5F5F5F5F5F5F5F5F5F50FF5F5F5F5F5F5F5F5F5F5F5F5F5F5F5F5F5F5F5F5F5F5F5F5F5F5F5F5F5F5F5F5F5F5F5F5F5F5F5F5F5F5F5F5F5F5F5F5F5F5
310
F5F5F5F5F5F5F5F5F5F5F5F5F5F5F5F5F5F5F5F5F5F5F5F5F5F5F5F5F5F5F5F5F5F5F5F5F5F5F5F5F5F5F5F5F5F5F5F5F5F5F5F5F5F5F5F5F5F5F5F5F5F5F5F5F5F5F5F5F5F5F5F5F5F5F5F5F5F5F5F5F5F5F5F5F5F5F5F5F5F5F5F5F5F5F5F5F5F5F5F5F5F5F5F5F5F5F5F5F5F5F5F5F5F5F5F5F5F5F5F5F5F5F5F5F5F5F5
310
F5F5F5F5F5F5F5F5F5F5F5F5F5F5F5F5F5F5F5F5F5F5F5F5F5F5F5F5F5F5F5F5F5F5F5F5F5F5F5F5F5F5F5F5F5F5F5F5F5F5F5F5F5F5F5F5F5F5F5F5F5F5F5F5F5F5F5F5F5F5F5F5F5F5F5F5F5F5F5F5F5F5F5F5F5F5F5F5F5F5F5F5F5F5F5F5F5F5F5F5F5F5F5F5F5F5F5F5F5F5F5F5F5F5F5F5F5F5F5F5F5F5F5F5F5F5F5
310
F5F5F5F5F5F5F5F5F5F5F5F5F5F5F5F5F5F5F5F5F5F5F5F5F5F5F5F5F5F5F5F5F5F5F5F5F5F5F5F5F5F5F5F5F5F5F5F5F5F5F5F5F5F5F5F5F5F5F5F5F5F5F5F5F5F5F5F5F5F5F5F5F5F5F5F5F5F5F5F5F5F5F5F5F5F5F5F5F5F5F5F5F5F5F5F5F5F5F5F5F5F5F5F5F5F5F5F5F5F5F5F5F5F5F5F5F5F5F5F5F5F5F5F5F5F5F5
310
F5F5F5F5F5F5F5F5F5F5F5F5F5F5F5F5F5F5F5F5F5F5F5F5F5F5F5F5F5F5F5F5F5F5F5F5F5F5F5F5F5F5F5F5F5F5F5F5F5F5F5F5F5F5F5F5F5F5F5F5F5F5F5F5F5F5F5E2F5F5F5F5F5F5F5F5F5F5F5F5F5F5F5F5F5F5F5F5F5F5F5F5F5F5F5F5F5F5F5F5F5F5F5F5F5F5F5F5F5F5F5F5F5F5F5F5F5F5F5F5F5F5F5F5F5F5F5
310
F5F5F5F5F5F5F5F5F5F5F5F5F5F5F5F5F5F5F5F5F5F5F5F5F5F5F5F5F5F5F5F5F5F5F5F5F5F5F5F5F5F5F5F5F5F5F5F5F5F5F5F5F5F5F5F5F5F5F5F5F5F5F5F5F5F5F5F5F5F5F5F5F5F5F5F5F5F5F5F5F5F5F5F5F5F5F5F5F5F5F5F5F5F5F5F5F5F5F5F5F5F5F5F5F5F5F5F5F5F5F5F5F5F5F5F5F5F5F5F5F5F5F5F5F5F5F5
310
F5F5F5F5F5F5F5F5F5F5F5F5F5F5F5F5F5F5F5F5F5F5F5F5F5F5F5F5F5F5F5F5F5F5F5F5F5F5F5F5F5F5F5F5F5F5F5F5F5F5F5F5F5F5F5F5F5F5F5F5F5F5F5F5F5F5F5F5F5F5F5F5F5F5F5F5F5F5F5F5F5F5F5F5F5F5F5F5F5F5F5F5F5F5F5F5F5F5F5F5F5F5F5F5F5F5F5F5F5F5F5F5F5F5F5F5F5F5F5F5F5F5F5F5F5F5F5
310
F5F5F5F5F5F5F5F5F5F5F5F5F5F5F5F5F5F5F5F5F5F5F5F5F5F5F5F5F5F5F5F5F5F5F5F5F5F5F5F5F5F5F5F5F5F5F5F5F5F5F5F5F5F5F5F5F5F5F5F5F5F5F5F5F5F5F5F5F5F5F5F5F5F5F5F5F5F5F5F5F5F5F5F5F5F5F5F5F5F5F5F5F5F5F5F5F5F5F5F5F5F5F5F5F5F5F5F5F5F5F5F5F5F5F5F5F5F5F5F5F5F5F5F5F5F5F5
310
F5F5F5F5F5F5F5F5F5F5F5F5F5F5F5F5F5F5F5F5F5F5F5F5F5F5F5F5F5F5F5F5F5F5F5F5F5F5F5F5F5F5F5F5F5F5F5F5F5F5F5F5F5F5F5F5F5F5F5F5F5F5F5F5F5F5F5F5F5F5F5F5F5F5F5F5F5F5F5F5F5F5F5F5F5F5F5F5F5F5F5F5F5F5F5F5F5F5F5F5F5F5F5F5F5F5F5F5F5F5F5F5F5F5F5F5F5F5F5F5F5F5F5F5F5F5F5
310
F5F5F5F5F5F5F5F5F5F5F5F5F5F5F5F5F5F5F5F5F5F5F5F5F5F5F5F5F5F5F5F5F5F5F5F5F5F5F5F5F5F5F5F5F5F5F5F5F5F5F5F5F5F5F5F5F5F5F5F5F5F5F5F5F5F5F5F5F5F5F5F5F5F5F5F5F5F5F5F5F5F5F5F5F5F5F5F5F5F5F5F5F5F5F5F5F5F5F5F5F5F5F5F5F5F5F5F5F5F5F5F5F5F5F5F5F5F5F5F5F5F5F5F5F5F5F5
310
F5F5F5F5F5F5F5F5F5F5F5F5F5F5F5F5F5F5F5F5F5F5F5F5F5F5F5F5F5F5F5F5F5F5F5F5F5F5F5F5F5F5F5F5F5F5F5F5F5F5F5F5F5F5F5F5F5F5F5F5F5F5F5F5F5F5F5F5F5F5F5F5F5F5F5F5F5F5F5F5F5F5F5F5F5F5F5F5F5F5F5F5F5F5F5F5F5F5F5F5F5F5F5F5F5F5F5F5F5F5F5F5F5F5F5F5F5F5F5F5F5F5F5F5F5F5F5
310
F5F5F5F5F5F5F5F5F5F5F5F5F5F5F5F5F5F5F5F5F5F5F5F5F5F5F5F5F5F5F5F5F5F5F5F5F5F5F5F5F5F5F5F5F5F5F5F5F5F5F5F5F5F5F5F5F5F5F5F5F5F5F5F5F5F5F5F5F5F5F5F5F5F5F5F5F5F5F5E2F5F5F5F5F5F5F5F5F5F5F5F5F5F5F5F5F5F5F5F5F5F5F5F5F5F5F5F5F5F5F5F5F5F5F5F5F5F5F5F5F5F5F5F5F5F5F5
310
F5F5F5F5F5F5F5F5F5F5F5F5F5F5F5F5F5F5F5F5F5F5F5F5F5F5F5F5F5F5F5F5F5F5F5F5F5F5F5F5F5F5F5F5F5F5F5F5F5F5F5F5F5F5F5F5F5F5F5F5F5F5F5F5F5F5F5F5F5F5F5F5F5F5F5F5F5F5F5F5F5F5F5F5F5F5F5F5F5F5F5F5F5F5F5F5F5F5F5F5F5F5F5F5F5F5F5F5F5F5F5F5F5F5F5F5F5F5F5F5F5F5F5F5F5F5F5
310
F5F5F5F5F5F5F5F5F5F5F5F5F5F5F5F5F5F5F5F5F5F5F5F5F5F5F5F5F5F5F5F5F5F5F5F5F5F5F5F5F5F5F5F5F5F5F5F5F5F5F5F5F5F5F5F5F5F5F5F5F5F5F5F5F5F5F5F5F5F5F5F5F5F5F5F5F5F5F5F5F5F5F5F5F5F5F5F5F5F5F5F5F5F5F5F5F5F5F5F5F5F5F5F5F5F5F5F5F5F5F5F5F5F5F5F5F5F5F5F5F5F5F5F5F5F5F5
310
F5F5F5F5F5F5F5F5F5F5F5F5F5F5F5F5F5F5F5F5F5F5F5F5F5F5F5F5F5F5F5F5F5F5F5F5F5F5F5F5F5F5F5F5F5F5F5F5F5F5F5F5F5F5F5F5F5F5F5F5F5F5F5F5F5F5F5F5F5F5F5F5F5F5F5F5F5F5F5F5F5F5F5F5F5F5F5F5F5F5F5F5F5F5F5F5F5F5F5F5F5F5F5F5F5F5F5F5F5F5F5F5F5F5F5F5F5F5F5F5F5F5F5F5F5F5F5
310
F5F5F5F5F5F5F5F5F5F5F5F5F5F5F5F5F5F5F5F5F5F5F5F5F5F5F5F5F5F5F5F5F5F5F5F5F5F5F5F5F5F5F5F5F5F5F5F5F5F5F5F5F5F5F5F5F5F5F5F5F5F5F5F5F5F5F5F5F5F5F5F5F5F5F5F5F5F5F5F5F5F5F5F5F5F5F5F5F5F5F5F5F5F5F5F5F5F5F5F5F5F5F5F5F5F5F5F5F5F5F5F5F5F5F5F5F5F5F5F5F5F5F5F5F5F5F5
310
F5F5F5F5F5F5F5F5F5F5F5F5F5F5F5F5F5F5F5F5F5F5F5F5F5F5F5F5F5F5F5F5F5F5F5F5F5F5F5F5F5F5F5F5F5F5F5F5F5F5F5F5F5F5F5F5F5F5F5F5F5F5F5F5F5F5F5F5F5F5F5F5F5F5F5F5F5F5F5F5F5F5F5F5F5F5F5F5F5F5F5F5F5F5F5F5F5F5F5F5F5F5F5F5F5F5F5F5F5F5F5F5F5F5F5F5F5F5F5F5F5F5F5F5F5F5F5
310
F5F5F5F5F5F5F5F5F5F5F5F5F5F5F5F5F5F5F5F5F5F5F5F5F5F5F5F5F5F5F5F5F5F5F5F5F5F5F5F5F5F5F5F5F5F5F5F5F5F5F5F5F5F5F5F5F5F5F5F5F5F5F5F5F5F5F5F5F5F5F5F5F5F5F5F5F5F5F5F5F5F5F5F5F5F5F5F5F5F5F5F5F5F5F5F5F5F5F5F5F5F5F5F5F5F5F5F5F5F5F5F5F5F5F5F5F5F5F5F5F5F5F5F5F5F5F5
310
F5F5F5F5F5F5F5F5F5F5F5F5F5F5F5F5F5F5F5F5F5F5F5F5F5F5F5F5F5F5F5F5F5F5F5F5F5F5F5F5F5F5F5F5F5F5F5F5F5F5F5F5F5F5F5F5F5F5F5F5F5F5F5F5F5F5F5F5F5F5F5F5F5F5F5F5F5F5F5F5F5F5F5F5F5F5F5F5F5F50FF5F5F5F5F5F5F5F5F5F5F5F5F5F5F5F5F5F5F5F5F5F5F5F5F5F5F5F5F5F5F5F5F5F5F5F5
310
F5F5F5F5F5F5F5F5F5F5F5F5F5F5F5F5F5F5F5F5F5F5F5F5F5F5F5F5F5F5F5F5F5F5F5F5F5F5F5F5F5F5F5F5F5F5F5F5F5F5F5F5F5F5F5F5F5F5F5F5F5F5F5F5F5F5F5F5F5F5F5F5F5F5F5F5F5F5F5F5F5F5F5F5F5F5F5F5F5F5F5F5F5F5F5F5F5F5F5F5F5F5F5F5F5F5F5F5F5F5F5F5F5F5F5F5F5F5F5F5F5F5F5F5F5F5F5
310
F5F5F5F5F5F5F5F5F5F5F5F5F5F5F5F5F5F5F5F5F5F5F5F5F5F5F5F5F5F5F5F5F5F5F5F5F5F5F5F5F5F5F5F5F5F5F5F5F5F5F5F5F5F5F5F5F5F5F5F5F5F5F5F5F5F5F5F5F5F5F5F5F5F5F5F5F5F5F5F5F5F5F5F5F5F5F5F5F5F5F5F5F5F5F5F5F5F5F5F5F5F5F5F5F5F5F5F5F5F5F5F5F5F5F5F5F5F5F5F5F5F5F5F5F5F5F5
310
F5F5F5F5F5F5F5F5F5F5F5F5F5F5F5F5F5F5F5F5F5F5F5F5F5F5F5F5F5F5F5F5F5F5F5F5F5F5F5F5F5F5F5F5F5F5F5F5F5F5F5F5F5F5F5F5F5F5F5F5F5F5F5F5F5F5F5F5F5F5F5F5F5F5F5F5F5F5F5F5F5F5F5F5F5F5F5F5F5F5F5F5F5F5F5F5F5F5F5F5F5F5F5F5F5F5F5F50F0FF5F5F5F5F5F5F5F5F5F5F5F5F5F5F5F5F5
310
F5F5F5F5F5F5F5F5F5F5F5F5F5F5F5F5F5F5F5F5F5F5F5F5F5F5F5F5F5F5F5F5F5F5F5F5F5F5F5F5F5F5F5F5F5F5F5F5F5F5F5F5F5F5F5F5F5F5F5F5F5F5F5F5F5F5F5F5F5F5F5F5F5F5F5F5F5F5F5F5F5F5F5F5F5F5F5F5F5F5F5F5F5F5F5F5F5F5F5F5F5F5F5F5F5F5F5F5F5F5F5F5F5F5F5F5F5F5F5F5F5F5F5F5F5F5F5
310
F5F5F5F5F5F5F5F5F5F5F5F5F5F5F5F5F5F5F5F5F5F5F5F5F5F5F5F5F5F5F5F5F5F5F5F5F5F5F5F5F5F5F5F5F5F5F5F5F5F5F5F5F5F5F5F5F5F5F5F5F5F5F5F5F5F5F5F5F5F5F5F5F5F5F5F5F5F5F5F5F5F5F5F5F5F5F5F5F5F5F5F5F5F5F5F5F5F5F5F5F5F5F5F5F5F5F5F5F5F5F5F5F5F5F5F5F5F5F5F5F5F5F5F5F5F5F5
310
F5F5F5F5F5F5F5F5F5F5F5F5F5F5F5F5F5F5F5F5F5F5F5F5F5F5F5F5F5F5F5F5F5F5F5F5F5F5F5F5F5F5F5F5F5F5F5F5F5F5F5F5F5F5F5F5F5F5F5F5F5F5F5F5F5F5F5F5F5F5F5F5F5F5F5F5F5F5F5F5F5F5F5F5F5F5F5F5F5F5F5F5F5F5F5F5F5F5F5F5F5F5F5F5F5F5F5F5F5F5F5F5F5F5F5F5F5F5F5F5F5F5F5F5F5F5F5
310
F5F5F5F5F5F5F5F5F5F5F5F5F5F5F5F5F5F5F5F5F5F5F5F5F5F5F5F5F5F5F5F5F5F5F5F5F5F5F5F5F5F5F5F5F5F5F5F5F5F5F5F5F5F5F5F5F5F5F5F5F5F5F5F5F5F5F5F5F5F5F5F5F5F5F5F5F5F5F5F5F5F5F5F5F5F5F5F5F5F5F5F5F5F5F5F5F5F5F5F50F0FF5F5F5F5F5F5F5F5F5F5F5F5F5F5F5F5F5F5F5F5F5F5F5F5F5
310
F5F5F5F5F5F5F5F5F5F5F5F5F5F5F5F5F5F5F5F5F5F5F5F5F5F5F5F5F5F5F5F5F5F5F5F5F5F5F5F5F5F5F5F5F5F5F5F5F5F5F5F5F5F5F5F5F5F5F5F5F5F5F5F5F5F5F5F5F5F5F5F5F5F5F5F5F5F5F5F5F5F5F5F5F5F5F5F5F5F5F5F5F5F5F5F5F5F5F5F5F5F5F5F5F5F5F5F5F5F5F5F5F5F5F5F5F5F5F5F5F5F5F5F5F5F5F5
310
F5F5F5F5F5F5F5F5F5F5F5F5F5F5F5F5F5F5F5F5F5F5F5F5F5F5F5F5F5F5F5F5F5F5F5F5F5F5F5F5F5F5F5F5F5F5F5F5F5F5F5F5F5F5F5F5F5F5F5F5F5F5F5F5F5F5F5F5F5F5F5F5F5F5F5F5F5F5F5F5F5F5F5F5F5F5F5F5F5F5F5F5F5F5F5F5F5F5F5F5F5F5F5F5F5F5F5F5F5F5F5F5F5F5F5F5F5F5F5F5F5F5F5F5F5F5F5
310
F5F5F5F5F5F5F5F5F5F5F5F5F5F5F5F5F5F5F5F5F5F5F5F5F5F5F5F5F5F5F5F5F5F5F5F5F5F5F5F5F5F5F5F5F5F5F5F5F5F5F5F5F5F5F5F5F5F5F5F5F5F5F5F5F5F5F5F5F5F5F5F5F5F5F5F5F5F5F5F5F5F5F5F5F5F5F5F5F5F5F5F5F5F5F5F5F5F5F5F5F5F5F5F5F5F5F5F5F5F5F5F5F5F5F5F5F5F5F5F5F5F5F5F5F5F5F5
310
F5F5F5F5F5F5F5F5F5F5F5F5F5F5F5F5F5F5F5F5F5F5F5F5F5F5F5F5F5F5F5F5F5F5F5F5F5F5F5F5F5F5F5F5F5F5F5F5F5F5F5F5F5F5F5F5F5F5F5F5F5F5F5F5F5F5F5F5F5F5F5F5F5F5F5F5F5F5F5F5F5F5F5F5F5F5F5F5F5F5F5F5F5F5F5F5F5F5F5F5F5F5F5F5F5F5F5F5F5F5F5F5F5F5F5F5F5F5F5F5F5F5F5F5F5F5F5
310
F5F5F5F5F5F5F5F5F5F5F5F5F5F5F5F5F5F5F5F5F5F5F5F5F5F5F5F5F5F5F5F5F5F5F5F5F5F5F5F5F5F5F5F5F5F5F5F5F5F5F5F5F5F5F5F5F5F5F5F5F5F5F5F5F5F5F5F5F5F5F5F5F5F5F5F5F5F5F5F5F5F5F5F5F5F5F5F5F5F5F5F5F5F5F5F5F5F5F5F5F5F5F5F5F5F5F5F5F5F5F5F5F5F5F5F5F5F5F5F5F5F5F5F5F5F5F5
310
F5F5F5F5F5F5F5F5F5F5F5F5F5F5F5F5F5F5F5F5F5F5F5F5F5F5F5F5F5F5F5F5F5F5F5F5F5F5F5F5F5F5F5F5F5F5F5F5F5F5F5F5F5F5F5F5F5F5F5F5F5F5F5F5F5F5F5F5F5F5F5F5F5F5F5F5F5F5F5F5F5F5F5F5F5F5F5F5F5F5F5F5F5F5F5F5F5F5F5F5F5F5F5F5F5F5F5F5F5F5F5F5F5F5F5F5F5F5F5F5F5F5F5F5F5F5F5
310
F5F5F5F5F5F5F5F5F5F5F5F5F5F5F5F5F5F5F5F5F5F5F5F5F5F5F5F5F5F5F5F5F5F5F5F5F5F5F5F5F5F5F5F5F5F5F5F5F5F5F5F5F5F5F5F5F5F5F5F5F5F5F5F5F5F5F5F5F5F5F5F5F5F5F5F5F5F5F5F5F5F5F5F5F5F5F5F5F5F5F5F5F5F5F5F5F5F5F5F5F5F5F5F5F5F5F5F5F5F5F5BEBEF5F5F5F5F5F5F5F5F5F5F5F5F5F5
310
F5F5F5F5F5F5F5F5F5F5F5F5F5F5F5F5F5F5F5F5F5F5F5F5F5F5F5F5F5F5F5F5F5F5F5F5F5F5F5F5F5F5F5F5F5F5F5F5F5F5F5F5F5F5F5F5F5F5F5F5F5F5F5F5F5F5F5F5F5F5F5F5F5F5F5F5F5F5F5F5F5F5F5F5F5F5F5F5F5F5F5F5F5F5F5F5F5F5F5F5F5F5F5F5F5F5F5F5F5F5F5F5F5F5F5F5F5F5F5F5F5F5F5F5F5F5F5
310
F5F5F5F5F5F5F5F5F5F5F5F5F5F5F5F5F5F5F5F5F5F5F5F5F5F5F5F5F5F5F5F5F5F5F5F5F5F5F5F5F5F5F5F5F5F5F5F5F5F5F5F5F5F5F5F5F5F5F5F5F5F5F5F5F5F5F5F5F5F5F5F5F5F5F5F5F5F5F5F5F5F5F5F5F5F5F5F5F5F5F5F5F5F5F5F5F5F5F5F5F5F5F5F5F5F5F5F5F5F5F5F5F5F5F5F5F5F5F5F5F5F5F5F5F5F5F5
310
F5F5F5F5F5F5F5F5F5F5F5F5F5F5F5F5F5F5F5F5F5F5F5F5F5F5F5F5F5F5F5F5F5F5F5F5F5F5F5F5F5F5F5F5F5F5F5F5F5F5F5F5F5F5F5F5F5F5F5F5F5F5F5F5F5F5F5F5F5F5F5F5F5F5F5F5F5F5F5F5F5F5F5F5F5F5F5F5F5F5F5F5F5F5F5F5F5F5F5F5F5F5F5F5F5F5F5F5F5F5F5F5F5F5F5F5F5F5F5F5F5F5F5F5F5F5F5
310
F5F5F5F5F5F5F5F5F5F5F5F5F5F5F5F5F5F5F5F5F5F5F5F5F5F5F5F5F5F5F5F5F5F5F5F5F5F5F5F5F5F5F5F5F5F5F5F5F5F5F5F5F5F5F5F5F5F5F5F5F5F5F5F5F5F5F5F5F5F5F5F5F5F5F5F5F5F5F5F5F5F5F5F5F5F5F5F5F5F5F5F5F5F5F5F5F5F5F5F5F5F5F5E2E2F5F5F5F5F5F5F5F5F5F5F5F5F5F5F5F5F5F5F5F5F5F5
310
F5F5F5F5F5F5F5F5F5F5F5F5F5F5F5F5F5F5F5F5F5F5F5F5F5F5F5F5F5F5F5F5F5F5F5F5F5F5F5F5F5F5F5F5F5F5F5F5F5F5F5F5F5F5F5F5F5F5F5F5F5F5F5F5F5F5F5F5F5F5F5F5F5F5F5F5E2E2
  0
ENDSEC
  0
EOF
